» » »

Naglfar, As The Twilight Gave Birth To The Night Tabs (ver.1)

Artists:  A B C D E F G H I J K L M N O P Q R S T U V W X Y Z # 

As The Twilight Gave Birth To The Night Tabs (ver.1)

Naglfar Tabs
Rating:
0/5 (0 votes)
As The Twilight Gave Birth To The Night lessons Tabs too difficult? Try these video lessons and learn fast
                Naglfar "As the twilight gave birth to the night"

Riff 1

G|------------------2222----------------4444222244445555444422224444
D|--2222555544445555----55554444----2222----------------------------
A|------------------------------5555--------------------------------

Riff 2

G|--------------4---4--------
D|--2---2-4---4-2---2-5---2-0
A|--3---3-2---2--------------

Riff 3

G|--------------0-------------------
D|------2-----4---4-----2------4---2
A|----2---2-3---------2---2--5---3--
E|--0---------------0---------------

Riff 4

G|--------------22224444444455555555444444444444220022222222--------
D|--555555555555--------------------------------------------44444444

B|--------------------------55555555--------------------------------
G|--------------222244444444----------------44442222--------22222222
D|--555555555555--------------------55555555--------44554444--------

Riff 5

B|--------------------------------4-444-4--542-4-444-4-542
G|--2-222-2--2-2-2-7-777-4--4-4-4-2-222-2------2-222-2----
D|--3-333-3--3-3-3-5-555-2--2-2-2-------------------------

Riff 6

G|--4----------------------------4----------4444222244445555
D|--2----------555555554444------2--------------------------
A|-------------------------5555-----------------------------
E|--------0000-------------------------0000-----------------

Riff 7 (acoustic)

B|--------------------0----------------------------
G|--------0---------0---0---------0---------0-----0
D|------2---2-----4-------4-----2---2-----4-----2--
A|----2-------2-3-------------2-------2-5-----3----
E|--0-----------------------0----------------------

Fill

G|--4-2-4-5-4---2--
D|------------5---4

Riff 8

G|--4---4-4---4--------------
D|--2---2-5---5-2---2-5---5-4
A|--------------3---3-3---3-3

Riff 9

G|--44444444------------------------55555555444422224444-------2222----
D|----------555544442222222244445555--------------------5555-------4444

G|--44444444------------------------5555555544442222----------------
D|----------555544442222222244445555----------------5555444422224444
            
Submit corrections

comments powered by Disqus
↑ Back to top | Naglfar Tabs for As The Twilight Gave Birth To The Night. Lyrics for acoustic guitar and electric guitar. Tablatures and chords are parodies/interpretations of the original songs. You may use it for private study, scholarship, research or language learning purposes only