» » »

Naglfar, 12th Rising Tabs (ver.1)

Artists:  A B C D E F G H I J K L M N O P Q R S T U V W X Y Z # 

12th Rising Tabs (ver.1)

Naglfar Tabs
Rating:
0/5 (0 votes)
12th Rising lessons Tabs too difficult? Try these video lessons and learn fast
                12Th Hour
                     From the Album Diabolical
              Copyright 1998 WAR MUSIC

For Questions, Comments, Newest Version, or Corrections contact

..  - palm mute          /  - slide up to
 \  - slide down to      ~  - vibrato
 h  - hammer on          b  - bend
 p  - pull off            Suffixes for bend
                          ph - pinch harmonic
                           f - full bend    h - half bend
*  - see comment           r - release      t - tap bend
X  - percussion mute       ~ - vibrato bend
@  - slight palm mute     () - ghost note, sustained note

Tune Gtr to (Whatever Tuning the song is in)

(NAME OF SONG)


RIFF 1 (x2)
|--------------------------------------------------------------------|
|--------------------------------------------------------------------|
|--------------------------------------------------------------------|
|------------------------------------------------999999777777-777777-|
|-77777777999101010777777777777101010999777777777--------------------|
|--------------------------------------------------------------------|
                      Ending the 2nd (0'22")
|-------------------| |-------------------|
|-------------------| |-------------------|
|-------------------| |-----9~------------|
|-----------77------| |-----9~------------|
|-1010991099--77777-| |-----7~------------|
|-------------------| |-------------------|

RIFF 2
|--------------------------------------------------------------------|
|--------------------------------------------------------------------|
|--------------------------------------------------------------------|
|-------------------------------------------9999997999999979999999---|
|-777777101010109999777777779991010107771010-------------------------|
|--------------------------------------------------------------------|

|--------------------------------------------------------------------|
|------------------------------------------888-----------------------|
|--------------------7999997999979999799999---9h11p9p11p9-7----------|
|-79997--------------------------------------------------------------|
|------1099999999910-------------------------------------------------|
|--------------------------------------------------------------------|
                               bridge berfore RIFF3
|--------------------------------------------|
|--------------------------------------------|
|--------------------------------------------|
|--99997779999-----------97--7---------------|
|-------------1010101010--10-109109797---7---|
|-------------------------------------10--109|


RIFF 3 (x2) (under vocals)
|--------------------------------------------------------------------|
|--------------------------------------------------------------------|
|--------------------------------------------------------------------|
|---------------------------------77999999797------------------------|
|-77777779109999777777799912121010-----------1099999912109109797-----|
|---------------------------------------------------------------10---|


RIFF chorus I (xx) 1'10" aprox
|---------------|                          |------------------|
|---------------|                          |------------------|
|-9~---5----7---| GTR II                   |------------------|
|-9~---5----7---|                          |111211--9119------|
|-7~---3----5---|                          |111211--9119------|
|----00--00--00-|                          |-9109---79 7------|
     ··  ··  ··
|--------------------------------------------------------------------|
|--------------------------------------------------------------------|
|--------------------------------------------------------------------| GTR I
|--------------------------------------------------------------------| (Not sure)
|--10109101210--9979107-1010101210-9979109---9109---797--------------| (About that)
|--------------------------------------------------------------------|

RIFF CHORUS II
|--------------------------------------------------------------------|
|--------------------------------------------------------------------|
|--------------------------------------------------------------------|
|----------------9------------10-------------12-109--9---------------|
|--12--109------9---109------9----109------9-------12-121012109109---|
|---------121112-------121112--------121112-----------------------12-|

AGAN RIFF 3

ENDING RIFF 3

|------|
|------|
|--11~-|
|--11~-| GTR II
|--9~--|
|------|

|--------------------------------------------------------------------|
|--------------------------------------------------------------------|
|--------------------------------------------------------------------|
|--------------------------------------------------------------------| GTR I
|-7777777101010999------777777777101010999---------------------------|
|-----------------101010------------------10101010-------------------|


SOLO I x4 (CHAINING PREVIOUS RIFF)
|--------------------------------------------------------------------|
|--------------------------------------------------------------------|
|--------------------------------------------------------------------|
|-------9--7-------------------------9--7--9-10-101010--12--10--9----|
|-7-777-------10--9-999-10-9---7-777---------------------------------|
|----------------------------10--------------------------------------|

SOLO II
|--------------------------------------------------------------------|
|--------------------------------------------------------------------|
|--------------------------------------------------------------------|
|--------7-------------------------------7------10-9----7------------|
|-7-9-10---9-10-----10-9----9-7---7-9-10---10-9------10---10-9-------|
|----------------12------10------------------------------------------|

ENDING  SOLO

|----------|
|----------|
|--7-5-7-9-|
|--7-5-7-9-|
|--5-3-5-7-|
|----------|

AGAIN RIFF 1 x2
AGAIN RIFF CHORUS II x2
AGAIN RIFF 3 x2
AGAIN RIFF CHORUS I  x2
AGAIN RIFF CHORUS II x2

END
            
Submit corrections

comments powered by Disqus
↑ Back to top | Naglfar Tabs for 12th Rising. Lyrics for acoustic guitar and electric guitar. Tablatures and chords are parodies/interpretations of the original songs. You may use it for private study, scholarship, research or language learning purposes only