» » »

Nada Surf, Why Are You So Mean To Me? Tabs (ver.1)

Artists:  A B C D E F G H I J K L M N O P Q R S T U V W X Y Z # 

Why Are You So Mean To Me? Tabs (ver.1)

Nada Surf Tabs
Rating:
0/5 (0 votes)
Why Are You So Mean To Me? lessons Tabs too difficult? Try these video lessons and learn fast
                			     Nada Surf - Why Are You So Mean To Me?
Tuning: Standard (eadgbE)



Intro:
Guitar 1:

Riff 1
e|------------------------------------------------------|
B|------------------------------------------------------|
G|------------------------------------------------------|
D|--------------------------7--7--7--7--10-10-10-10-----|
A|-10-10-8-7--7-8-8-7-7---0-5--5--5--5--8--8--8--8------|
E|------------------------------------------------------|

Riff 2
e|------------------------------------------------------|
B|------------------------------------------------------|
G|------------------------------------------------------|
D|--------------------------7--7--7--7------------------|
A|-10-10-8-7--7-8-8-7-7---0-5--5--5--5--10-10-10-10-----|
E|--------------------------------------8--8--8--8------|


Omkvæd - Guitar 2
   G          F# F          D           C  
e|------------------------------------------------------|
B|------------------------------------------------------|
G|-12---------10-9----------7-----------5---------------|
D|-12---------10-9----------7-----------5---------------|
A|-10---------8--7----------5-----------3---------------|
E|------------------------------------------------------|


C-stykke (2:35)
Guitar 2 (evt ta dem som powerakk...)
    D       E              D     E                E     F       G F E D C D             
e|---------------------------------------------------------------------------|
B|---------------------------------------------------------------------------|
G|---------------------------------------------------------------------------|
D|---------------------------------------------------------------------------|
A|--5-5-5-7-(7)(7)(7)(7)---5-5-5-(7)(7)(7)(7)-----7-7-7-8-8-8-8-10-8-7-5-3/5-|
E|---------------------------------------------------------------------------|

Solo (2:48)
Guitar 1
e|--------------------------------------------------------|
B|-15^(17)-(17)-(17)r15-13-----15^(17)-(17)-(17)r15-13----|
G|--------------------------------------------------------|
D|--------------------------------------------------------|
A|--------------------------------------------------------|
E|--------------------------------------------------------|

e|-15^(17)-(17)-(17)-15-15-----15^(17)-(17)-(17)-15-15----|
B|--------------------------------------------------------|
G|--------------------------------------------------------|
D|--------------------------------------------------------|
A|--------------------------------------------------------|
E|--------------------------------------------------------|

e|--------------------------------------------------------|
B|-15^(17)-(17)-(17)r15-13-----15^(17)-(17)-(17)r15-13----|
G|--------------------------------------------------------|
D|--------------------------------------------------------|
A|--------------------------------------------------------|
E|--------------------------------------------------------|

e|--------------------------------------------------------|
B|-----13----13----13----12-12-13-------13----------------|
G|--12----10----12----10-------------------12-------------|
D|--------------------------------------------------------|
A|--------------------------------------------------------|
E|--------------------------------------------------------|

Guitar 2 spiller første gang
e|--------------------------------------------|
B|--------------------------------------------|
G|---------------------------------12---------|
D|--15--14-12----12-14-15-14-12-------14------|
A|------------15----------------15------------|
E|--------------------------------------------|

OG Guitar 1 spiller anden gang
e|----------------------------------------------------|
B|----------------------------------------------------|
G|-12--------------------------------------12---------|
D|----12-14-15--14-12----12-14-15-14-12-------14------|
A|--------------------15----------------15------------|
E|----------------------------------------------------|

AFsl*tNING: (hold de to sidste akkorder i lang tid)
e|------------------------------------------------------|
B|------------------------------------------------------|
G|------------------------------------------------------|
D|--------------------------7-----------10--------------|
A|-10-10-8-7--7-8-8-7-7---0-5-----------8---------------|
E|------------------------------------------------------|



I N T R O:
Riff 1
Riff 2

V E R S:
Riff 1 x 

O M K V Æ D:
Guitar 1 spiller Riff 1 mens guitar 2 spiller det anviste i omkvæd

C - S T Y K K E   M E D   S O L O:
Guitar 2 spiller det anviste mens guitar 1 lapper ind over med soloen...

AFsl*tNING

INTRO
VERS 1
OMKVÆD
VERS 2
OMKVÆD
C-STYKKE
SOLO
VERS
OMKVÆD
AFsl*tNING
| ^  bend
| r  release (bend)
| /  slide up
| \  slide down
| h  hammer-on
| p  pull-off
| ~  vibrato
| +  harmonic
| x  Mute note
            

comments powered by Disqus
↑ Back to top | Nada Surf Tabs for Why Are You So Mean To Me?. Lyrics for acoustic guitar and electric guitar. Tablatures and chords are parodies/interpretations of the original songs. You may use it for private study, scholarship, research or language learning purposes only