» » »

Nada Surf, Where Is My Mind? Bass tabs (ver.1)

Artists:  A B C D E F G H I J K L M N O P Q R S T U V W X Y Z # 

Where Is My Mind? Bass tabs (ver.1)

Nada Surf Tabs
Rating:
0/5 (0 votes)
Where Is My Mind? lessons Tabs too difficult? Try these video lessons and learn fast
                Nada Surf ? Where is my mind?

Riff #1
G|---------------------------------
D|---------------------------------
A|---------2-2-2-2-----------------
D|-0-0-0-0---------4-4-4-4-5-5-5-5-

Riff #2
G|---------------------------
D|---------------------------
A|---------2-----------------
D|-0---------------4-------5-

Riff #3
G|-------------------------------------
D|-------------------------------------
A|-------------------------------------
D|-0-0-0-0-4-4-4-4-5-5-5-5-5-5-5-5-5/9-

Riff #4
G|----------------------------------------------------------------
D|----------------------------------------------------------------
A|----------------------------------------------------------------  I'm not sure
D|-7-7-7-7-7-7-7-7-7-7-7-7-7-7-7-7-7-7-7-7-7-7-7-7-7-7-7-7-7-7-7-7  about this...

Riff #5
G|---------------------------
D|---------------------------
A|---------------------------
D|-6/9-----8-------7-------6-

Riff #6
G|---------------------------
D|---------------------------
A|---------------------------
D|-6/9---9-8-----8-7-----7-6-

Riff #7
G|---
D|---
A|---
D|-0-

Song order:
Riff #1 - - - - 5 x
Riff #2 - - - - 3 x
Riff #3 - - - - 1 x
Riff #1 - - - - 5 x
Riff #2 - - - - 1 x
Riff #3 - - - - 1 x
Riff #4 - - - - 1 x
Riff #5 - - - - 4 x
Riff #6 - - - - 1 x
Riff #2 - - - - 1 x
Riff #3 - - - - 1 x
Riff #1 - - - - 8 x
Riff #2 - - - - 1 x
Riff #7 - - - - 1 x
            
Submit corrections

comments powered by Disqus
↑ Back to top | Nada Surf Bass for Where Is My Mind?. Lyrics for acoustic guitar and electric guitar. Tablatures and chords are parodies/interpretations of the original songs. You may use it for private study, scholarship, research or language learning purposes only