» » »

Nada Surf, When I Was Young Tabs (ver.1)

Artists:  A B C D E F G H I J K L M N O P Q R S T U V W X Y Z # 

When I Was Young Tabs (ver.1)

Nada Surf Tabs
Rating:
0/5 (0 votes)
When I Was Young lessons Tabs too difficult? Try these video lessons and learn fast
                This is the first time I edit a tab on the internet. I used to edit some for my guitar 

I hope you'll find your pleasure here. These are not the true names of the chords (like 
AmD7: i totally created it but the finger position should be correct).

I also invite you to listen to my own stuff, I play guitar in a band called Crumble 

Cheers from Belgium,

Aurel Crumble

----------------------------------------------------------------------------
Nada surf - when I was young

C [332010] G/C [320010] Em [022000] Am [022100]-AmD7 [200210]
e|-------------------------------------------------------|
B|--1-----1-----1----1-----0------0------1-----1---------|
G|----0-----0-----0----0-----0------0------2------2------|
D|---2-----2-----0----0-----2------2------2------0-------|
A|-3-----------2----------2------------0-----------------|
E|------3-----------3-----------0-------------2----------|

It's amazing how much time love saves you at first
When you rediscover your reason to work
And your aimless dreaming has found a target and
You normalize and greet all function returned

e|--------------|     ------------------|        ----------------|
B|-----0--------|     ------0-----------|        -------0--------|
G|---------0----|     ----------5-------|        -----------5----|
D|-------5------|x4   --------5---------|x4      ---------5------| x8
A|---3----------|     ----3-------------|        ----------------|
E|--------------|     ------------------|        -----3----------|

Came home early, a quarter to two
I don't need more wine, I'm coming for you

We carry pictures in our pretend wallets
Of ourselves in heavily edited seventies
With better handwriting and longer days at the park
And dinners with no drama, the Professor, and Mary Ann

Came home early, a quarter to two
I don't need more wine, I'm coming for you

e|-------------|       -------------|        -------------|
B|----0--------|       ----0--------|        -----0-------|
G|--------5----|       --------5----|        ---------5---|
D|------5------|x2     ------5------|x2      -------5-----| x4
A|-------------|       -------------|        -------------|
E|--3----------|       --5----------|        ---0---------|

C [332010] - G [320033] - F [133211] - Am [x02210]

When I was young
I didn't know if I was better off asleep or up
Now I've grown up
I wonder what was that world I was dreaming of? (x2)

[bridge]

Late summer return
Airless apartment I lean out the window
Deals on the regular shirts
Same fright delight as last year more so

Chorus ...
            

comments powered by Disqus
↑ Back to top | Nada Surf Tabs for When I Was Young. Lyrics for acoustic guitar and electric guitar. Tablatures and chords are parodies/interpretations of the original songs. You may use it for private study, scholarship, research or language learning purposes only