>
 >
Stalemate

Stalemate Guitar Tabs

Nada Surf - Stalemate chords, tabs, tablatures, lyrics

Guitar lessons | Add/correct | Request | Top 50 tabs Artists:  A B C D E F G H I J K L M N O P Q R S T U V W X Y Z 0-9

Stalemate Guitar Tabs – Nada Surf

CD, Sheet music, Poster

Do you like Stalemate? Share with your friends now
Bass TabsTabs
NOTE: "!" means the 10th fret on any string
      "#" means the 12th fret on any string

INTRO / VERSE
							play 5 times
|----------------|----------------|----0-------0---|----0-------0---| |
|----0-------0---|----0-------0---|----0-------0---|----0-------0---| |
|----0-------0---|----0-------0---|----0-------0---|----0-------0---|.|
|0-0-0---0-0-0---|0-0-0---0-0-0---|0-0-0---0-0-0---|0-0-0---0-0-0---|.|
|!-!-!---!-!-!---|9-9-9---9-9-9---|9-9-9---9-9-9---|7-7-7---7-7-7---| |
|#-#-#---#-#-#---|!-!-!---!-!-!---|7-7-7---7-7-7---|5-5-5---5-5-5---| |

PRE-CHORUS

|5===============|================|2---x-2-x-3-x-5=|==========------|
|5===============|================|2---x-2-x-3-x-5=|==========------|
|6===============|================|3---x-3-x-4-x-6=|==========x-x-x-|
|7===============|================|4---x-4-x-5-x-7=|==========x-x-x-|
|7===============|================|4---x-4-x-5-x-7=|==========x-x-x-|
|5===============|================|2---x-2-x-3-x-5=|==========------|

|5===============|================|2---x-2-x-3-x---|----------------|
|5===============|================|2---x-2-x-3-x-7=|--77--7777777---|
|6===============|================|3---x-3-x-4-x-7=|--77--7777777---|
|7===============|================|4---x-4-x-5-x-7=|--77--7777777---|
|7===============|================|4---x-4-x-5-x-5=|--55--7555555---|
|5===============|================|2---x-2-x-3-x---|----------------|

CHORUS

|----------0-----|------0---------|----------------|----------------|
|----3-------3---|--3-------3-----|----2-----2---3-|3---3---33333---|
|------0---------|----0-------0---|--------------2-|2---2---22222---|
|--------0-------|----------------|--------2---2-0-|0---0---00000---|
|3---------------|----------------|0---------------|----------------|
|--------------0-|----------------|----------------|----------------|
 *let strings ring throught
  next two bars

|----------0-----|------0---------|----------------|
|----3-------3---|--3-------3-----|2===============|
|------0---------|----0-------0---|2===============|
|--------0-------|----------------|2===============|
|3---------------|----------------|0===============|
|--------------0-|----------------|----------------|
 *let strings ring throught
  next two bars

now repeat this whole thing from the beginging.  when you get to the end
again, replace the last bar w/ these two bars:

|----------------|----------------|
|2=============23|2===============|
|2===============|================|
|2===============|================|
|0===============|================|
|----------------|----------------|
	       *hammer on and pull off very quickly:
	       [---2^3^2----]

now bass and drums play for 8 bars

SOLO

For this part, I have decided to just write the two digit number as they
are except for in the third bars of the next two segments...you will
notice ! still = 10.  10 is written normally everywhere else.  It looks
messy but the second digits of the two digit numbers line up w/ the
single digit numbers


|----------------|----------------|----------------|----------------|
|8-8-8-\-7-----7-|--7-7-\-7=======|75--5---!-7-----|-101010101210---|
|x-x-x---x-----x-|--x-x---x-------|--7---7-----9---|--x-x-x-x-x-x---|
|5-5-5-\-4-----4-|--4-4-\-2=======|--------------7-|--7-7-7-7/9\7---|
|----------------|----------------|----------------|----------------|
|----------------|----------------|----------------|----------------|

|----------------|----------------|----------------|----------------|
|8-8-8-\-7-----7-|--7-7-\-7=======|75--5---!-7-----|-101010101210---|
|x-x-x---x-----x-|--x-x---x-------|--7---7-----9---|--x-x-x-x-x-x---|
|5-5-5-\-4-----4-|--4-4-\-2=======|--------------7-|--7-7-7-7/9\7---|
|----------------|----------------|----------------|----------------|
|----------------|----------------|----------------|----------------|

|----------------|----------------|----------------|----------------|
|8===========8\7=|================|============7/14|=======101210===|
|x-----------x-x-|----------------|------------x--x|--------x-x-x---|
|5===========5\4=|================|============4/11|========7/9\7===|
|----------------|----------------|----------------|----------------|
|----------------|----------------|----------------|----------------|

|----------------|----------------|----------------|----------------|
|8===========8\7=|================|============7/14|=======101210===|
|x-----------x-x-|----------------|------------x--x|--------x-x-x---|
|5===========5\4=|================|============4/11|========7/9\7===|
|----------------|----------------|----------------|----------------|
|----------------|----------------|----------------|----------------|

|----------------|----------------|----------------|----------------|
|8===========8\7=|============7/15|============1514|=========101210=|
|x-----------x-x-|------------x--x|-------------x-x|----------x-x-x-|
|5===========5\4=|============4/12|============1211|==========7/9\7-|
|----------------|----------------|----------------|----------------|
|----------------|----------------|----------------|----------------|

|----------------|----------------|----------------|----------------|
|8===========8\7=|============7/15|============1514|=========101210=|
|x-----------x-x-|------------x--x|-------------x-x|----------x-x-x-|
|5===========5\4=|============4/12|============1211|==========7/9\7-|
|----------------|----------------|----------------|----------------|
|----------------|----------------|----------------|----------------|

|----------------|----------------|----------------|----------------|
|8===========8\7=|============7/15|============1514|=========101210=|
|x-----------x-x-|------------x--x|-------------x-x|----------x-x-x-|
|5===========5\4=|============4/12|============1211|==========7/9\7-|
|----------------|----------------|----------------|----------------|
|----------------|----------------|----------------|----------------|

|----------------|----------------|----------------|----------------|
|8===========8\7=|============7/15|============1514|=========101210=|
|x-----------x-x-|------------x--x|-------------x-x|----------x-x-x-|
|5===========5\4=|============4/12|============1211|==========7/9\7-|
|----------------|----------------|----------------|----------------|
|----------------|----------------|----------------|----------------|

|----------------||
|!===============||
|x---------------||
|7===============||
|----------------||
|----------------||

oh yeah...i used ! instead of 10 here too...in cae you didn't notice :)





Comments


Popular Nada Surf tabs & chords
Do It Again Bass Tabs
Ice On The Wing Chords
Popular Chords
Blue Moon Tabs
Hyperspace Tabs
I Like What You Say Tabs
Icebox Tabs
From Now On Ukulele
Looking Through Ukulele
River Phoenix Ukulele


Song lyrics



↑ Back to top | Tablatures and chords are parodies/interpretations of the original songs. You may use it for private study, scholarship, research or language learning purposes only
© 2014 AZChords.com Contact us | Privacy policy | DMCA | Add/correct tabs | Request tabs | Top 50 tabs