» » »

Nada Surf, Stalemate Bass tabs (ver.1)

Artists:  A B C D E F G H I J K L M N O P Q R S T U V W X Y Z # 

Stalemate Bass tabs (ver.1)

Nada Surf Tabs
 Rating:
4/5 (4 votes)
Stalemate lessons Tabs too difficult? Try these video lessons and learn fast
1
                
Intro

G --------|
D --------|
A -7-10-9-|
E --------|

Verse

G --------------------------------------------------------------------------|
D --------------------------------------------------------------------------|
A -7-7-10-10-9-9-7-7-----9----9----10-9------10-10-9-9-7-7-----10-10-9-9-10-|9 x2
E --------------------10---10---10------7-7---------------5-5---------------|

G ---------------------------------------------------------------------------|
D -----------------------------------------------------------------------5-4-|
A -7-7-10-10-9-9-7-7-----9----9----10-9------10-10-9-9-7-7-------4---5-4-----|
E -------------------10----10---10------7-7------------------5-5---5---------|

Chorus

G ----------------------------------------|
D ----------------------------------------|
A ----------------------------------------|
E -5--3535-3-5--3535--2-2-3-3-5-5-5--3535-|

G ---------------------------------------|
D ---------------------------------------|
A ----------------------------5-5-5-3535-|
E -5--3535-3-5--3535--2-2-3-3------------|

G ------------------------------------|
D -------2----------------------------|
A -3-3-5---2-2-0202----------5-5-3535-|
E ------------------5-5-3535----------|

G --------------------|
D -------2------------|
A -3-3-5---2-2-0202---|
E ------------------5-|

Verse

G --------------------------------------------------------------------------|
D --------------------------------------------------------------------------|
A -7-7-10-10-9-9-7-7-----9----9----10-9------10-10-9-9-7-7-----10-10-9-9-10-|9 x3
E --------------------10---10---10------7-7---------------5-5---------------|

G ---------------------------------------------------------------------------|
D -----------------------------------------------------------------------5-4-|
A -7-7-10-10-9-9-7-7-----9----9----10-9------10-10-9-9-7-7-------4---5-4-----|
E -------------------10----10---10------7-7------------------5-5---5---------|

Chorus

G ----------------------------------------|
D ----------------------------------------|
A ----------------------------------------|
E -5--3535-3-5--3535--2-2-3-3-5-5-5--3535-|

G ---------------------------------------|
D ---------------------------------------|
A ----------------------------5-5-5-3535-|
E -5--3535-3-5--3535--2-2-3-3------------|

G ------------------------------------|
D -------2----------------------------|
A -3-3-5---2-2-0202----------5-5-3535-|
E ------------------5-5-3535----------|

G --------------------|
D -------2------------|
A -3-3-5---2-2-0202---|
E ------------------5-|

Bridge (Listen for repetition of notes) x3

G -------------------------------------|
D -------------------------------------|
A -7--10-9------10-9----10-9------10-9-|
E ---------10--------7-------5---------|

G --------------------------------------|
D --------------------------------------|
A -7---9-10------9-10-----9-10-----9-10-|
E ----------10--------7--------5--------|

Verse

G --------------------------------------------------------------------------|
D --------------------------------------------------------------------------|
A -7-7-10-10-9-9-7-7-----9----9----10-9------10-10-9-9-7-7-----10-10-9-9-10-|9 x3
E --------------------10---10---10------7-7---------------5-5---------------|

G ---------------------------------------------------------------------------|
D -----------------------------------------------------------------------5-4-|
A -7-7-10-10-9-9-7-7-----9----9----10-9------10-10-9-9-7-7-------4---5-4-----|
E -------------------10----10---10------7-7------------------5-5---5---------|
            
Submit corrections

comments powered by Disqus
↑ Back to top | Nada Surf Bass for Stalemate. Lyrics for acoustic guitar and electric guitar. 1 Tablatures and chords are parodies/interpretations of the original songs. You may use it for private study, scholarship, research or language learning purposes only