» » »

See These Bones Tabs (ver.1)

Artists:  A B C D E F G H I J K L M N O P Q R S T U V W X Y Z # 

See These Bones Tabs (ver.1)

Nada Surf
Rating:
5/5 (9 votes)

Hard to play? Try these video lessons and learn fast.
                
REAL FANS SUPPORT BANDS BY PURCHASING THEIR CD'S!!!


Tuning: Standard (You can use a different tuning as well, its not important)

. = Palm-Muted
~ = hold note
^ = vibrate
p = pull off
h = hammer on
/ = slide up
\ = slide down



Intro 0:00:
E----------------------------------------------------------------------------|
B----------------11---------------------------------------9------------------|
G-------11----------------11-------11------------11-------------11-----11----|
D----------------------------------------------------------------------------|
A----------------------------------------------------------------------------|
E---11------11-------11-------11-------------11------11------11-----11-------|

2. Part 0:07:
                   Eb                              Db
E----------------------------------------------------------------------|
B---------------11-------------------------------11--------------------|
G-------11--------------11----11----------10------------10------10-----|
D----------------------------------------------------------------------|
A----------------------------------------------------------------------|
E---11------11------11-----11----------9------9------9-------9---------|

               Cb                             Cb/B
E------------------------------------------------------------------|
B--------------9-------------------------------9-------------------|
G-------8--------------8-----8-----------8------------8-----8------|
D------------------------------------------------------------------|
A------------------------------------------------------------------|
E----7-----7-------7------7----------6------6------6-----6---------|

             Cb
E-------------------------------------|
B--------------7----------------------|
G-------8------------8-------8--------|
D---------------------------------x2--|
A-------------------------------------|
E----7-----7------7------7------------|

So the Chords are:
Eb,Db,Cb,Cb/B,Cb,Cb

Verse 0:18:   (a Little different)
             Eb                                     Db
E----------------------------------------------------------------------|
B---------------11-------------------------------9---------------------|
G-------11--------------11----11----------10------------10------10-----|
D----------------------------------------------------------------------|
A----------------------------------------------------------------------|
E---11------11------11-----11----------9------9------9-------9---------|

                Cb                            Db
E------------------------------------------------------------------|
B--------------9-------------------------------11------------------|
G-------8--------------8-----8----------10------------10-----10----|
D------------------------------------------------------------------|
A------------------------------------------------------------------|
E----7-----7-------7------7----------9------9------9------9--------|

(I know the B-string is a bit tricky, but it took me a long time, so please share some 
Thanks)


Theres a little 2. guitar playin a part in the verse, its sounds like this:
E---------------------------------------------------------------------------|
B----------11-----------------9------------------7--------------9-----------|
G------11-----11-----x2----10---10-----x2------8---8---x2----10---10----x2--|
D-(13)------------13---------------11----------------9----------------11----|
A---------------------------------------------------------------------------|
E---------------------------------------------------------------------------|


Chorus 0:48:
You cant hear the guitar in this part, just some high notes, so you have the choice 
playing the following chords as in the verse or you play the chords as power-chords.

//Ab, Db, B, Gb\\


Well, thats it they just repeat the Chorus about 10 times :D



Thats it! I hope this helped, please rate, comment and correct me!

Cheers...
            
Hard to play? Try these video lessons and learn fast. | Correct




comments powered by Disqus
↑ Back to top | Tablatures and chords are parodies/interpretations of the original songs. You may use it for private study, scholarship, research or language learning purposes only