» » »

Nada Surf, See These Bones Bass tabs (ver.1)

Artists:  A B C D E F G H I J K L M N O P Q R S T U V W X Y Z # 

See These Bones Bass tabs (ver.1)

Nada Surf Tabs
 Rating:
4.3/5 (6 votes)
See These Bones lessons Tabs too difficult? Try these video lessons and learn fast
                Band: Nada Surf

Please rate

Verse (0:19)

G|----------------------------------|
D|----4---------------3-------------| 
A|-466-6\--122-----244-4\--144------| x4	
E|----------------------------------|

Chorus (0:47)

G|----------------------------------|
D|----------------------------------| 
A|--------2444444442222222----------| x2
E|-4444444----------------422222222-|

Verse (1:02)

G|----------------------------------|
D|----4---------------3-------------| 
A|-466-6\--122-----244-4\--144------| x4	
E|----------------------------------|

Chorus (1:33) x4

G|----------------------------------|
D|----------------------------------| 
A|--------2444444442222222----------| x2
E|-4444444----------------422222222-|

G|----------------------------------|
D|-------------------------44444444-| 
A|--------24444444422222224---------| x2
E|-4444444--------------------------|

Bridge 2:01

G|--------------------------------------------------|
D|--------------------------------------------------|
A|-66-----644-----422-----211-----122-----122-------| x 3
E|--------------------------------------------------|

Chorus 2:34 x4

G|----------------------------------|
D|----------------------------------| 
A|--------2444444442222222----------|
E|-4444444----------------422222222-|

G|----------------------------------|
D|-------------------------44444444-| 
A|--------24444444422222224---------| x3
E|-4444444--------------------------|


Bridge 3:04:

G|----------------------------------|
D|-66666664----------------44444444-| 
A|---------4444444422222224---------|
E|----------------------------------|

G|----------------------------------|
D|-66666664-------------------------| 
A|---------4444444422222222---------|
E|-------------------------22222222-|

G|----------------------------------|
D|-------------------------44444444-| 
A|--------24444444422222224---------| x2
E|-4444444--------------------------|

3:34

G|----------------------------------|
D|-66666664----------------44444444-| 
A|---------4444444422222224---------|
E|----------------------------------|

G|----------------------------------|
D|----------------------------------| 
A|--------2444444442222222----------|
E|-4444444----------------422222222-|

3:48 

G|---------666888101011111111111111111111111111111111-|
D|-66688899-------------------------------------------| 
A|----------------------------------------------------| (10’s, 11’s)
E|----------------------------------------------------|

G|---------66688810101616161615--13--1111111111111111-|
D|-66688899-------------------------------------------|
A|----------------------------------------------------| (10’s, 16’s,
E|----------------------------------------------------|  13’s, 15’s, 11’s)

4:04

G|----------------------------------|
D|-66666664-------------------------| 
A|---------4444444422222222---------|
E|-------------------------22222222-|

G|----------------------------------|
D|-------------------------44444444-| 
A|--------24444444422222224---------|
E|-4444444--------------------------|

4:18

G|---------666888101011111111111111111111111111111111-|
D|-66688899-------------------------------------------| 
A|----------------------------------------------------| (10’s, 11’s)
E|----------------------------------------------------|

G|---------66688810101616161615--13--1111111111111111-|
D|-66688899-------------------------------------------|
A|----------------------------------------------------| (10’s, 16’s,
E|----------------------------------------------------|  13’s, 15’s, 11’s)

4:33

G|----------------------------------|
D|-66666664-------------------------| 
A|---------4444444422222222---------|
E|-------------------------22222222-|

G|----------------------------------|
D|-------------------------44444444-| 
A|--------24444444422222224---------|
E|-4444444--------------------------|

G|----------------------------------|
D|-66666664----------------44444444-| 
A|---------4444444422222224---------|
E|----------------------------------|

4:53

G|----------------------------------|
D|-66666664--------9---8-6-4~-------| 
A|---------44444444-----------------|
E|----------------------------------|
            
Submit corrections

comments powered by Disqus
↑ Back to top | Nada Surf Bass for See These Bones. Lyrics for acoustic guitar and electric guitar. Tablatures and chords are parodies/interpretations of the original songs. You may use it for private study, scholarship, research or language learning purposes only