» » »

Nada Surf, Robot Tabs (ver.1)

Artists:  A B C D E F G H I J K L M N O P Q R S T U V W X Y Z # 

Robot Tabs (ver.1)

Nada Surf Tabs
 Rating:
4/5 (4 votes)
Robot lessons Tabs too difficult? Try these video lessons and learn fast
1
                

Standard Tuning
EADGBE

Capo on 1st fret

-|---------------------------------------------------------------|------------|
-|---4---4---4---4---4---4---4---4---4---4---4---4---4---4---4---|------------|
-|-5-------5-----------------------5-------5---------------------|------------|
-|-----5-------5---6---5---6---5-------5-------5---6---5---6---5-|------------|
-|---------------------------------------------------------------|------------|
-|---------------------------------------------------------------|------------|
  Intro and Verse                                             14x

-|-3-3-3--3-3--3-3-3--3-3--0-0-0--0-0--0-0-0--0-0--3-3-3--3-3--4-4-4--4-4-|---|
-|-4-4-4--4-4--4-4-4--4-4--3-3-3--3-3--3-3-3--3-3--4-4-4--4-4--4-4-4--4-4-|---|
-|-3-3-3--3-3--3-3-3--3-3--3-3-3--3-3--3-3-3--3-3--5-5-5--5-5--5-5-5--5-5-|---|
-|-0-0-0--0-0--0-0-0--0-0--3-3-3--3-3--3-3-3--3-3--5-5-5--5-5--6-6-6--6-6-|---|
-|-------------------------0-0-0--0-0--0-0-0--0-0--3-3-3--3-3--6-6-6--6-6-|---|
-|-------------------------------------------------------------4-4-4--4-4-|---|
  Chorus                                                                1x

-|---------------|----------------|---------------|---------------------------|
-|---------------|----------------|---------------|---------------------------|
-|---------------|----------------|---------------|-----------------5-5-5-5/--|
-|---------------|----------------|---------------|-3-3-3-3-6-6-6-6-5-5-5-5/--|
-|---------------|----------------|---------------|-0-0-0-0-6-6-6-6-3-3-3-3/--|
-|---------------|----------------|---------------|---------4-4-4-4-----------|
   Verse Riff 4x   Chorus Riff 2x   Verse Riff 4x   Bridge

---------|-4-3-4-3-4-3-4-3-|-------------------------------------------------|
---------|-4-4-4-4-4-4-4-4-|-------------------------------------------------|
-8-8-8-8-|-5-3-5-3-5-3-5-3-|-------------------------------------------------|
-8-8-8-8-|-6-0-6-0-6-0-6-0-|-------------------------------------------------|
-6-6-6-6-|-6---6---6---6---|-555555555555555555555/666666666666666666666666--|
---------|-4---4---4---4---|-333333333333333333333/444444444444444444444444--|
      4x   "One night..."   "I still remember..."

-|-----------|-3-3-3--3-3--4-4-4--4-4-|---------------------------------------|
-|-----------|-4-4-4--4-4--4-4-4--4-4-|---------------------------------------|
-|-----------|-5-5-5--5-5--5-5-5--5-5-|---------------------------------------|
-|-----------|-5-5-5--5-5--6-6-6--6-6-|---------------------------------------|
-|-----------|-3-3-3--3-3--6-6-6--6-6-|---------------------------------------|
-|-----------|-------------4-4-4--4-4-|---------------------------------------|
   Chorus 4x   Outro                8x
            
Submit corrections

comments powered by Disqus
↑ Back to top | Nada Surf Tabs for Robot. Lyrics for acoustic guitar and electric guitar. 1 Tablatures and chords are parodies/interpretations of the original songs. You may use it for private study, scholarship, research or language learning purposes only