>
 >
Inside Of Love

Inside Of Love Bass Tabs

Nada Surf - Inside Of Love chords, tabs, tablatures, lyrics

Guitar lessons | Add/correct | Request | Top 50 tabs Artists:  A B C D E F G H I J K L M N O P Q R S T U V W X Y Z 0-9

Inside Of Love Bass Tabs – Nada Surf

CD, Sheet music, Poster

Do you like Inside Of Love? Share with your friends now
Bass TabsChordsDrum TabsTabsTabs v2Ukulele

                                            Inside of Love


                                                                                     Nada Surf
Bass



   W                 W                   E  S S Q     E  S S Q        E  S S Q     E  S S S S S S
G||--------------|-------------------|----------------------------|-----------------------------|
D||--------------|-------------------|----------------------------|-----------------------------|
A||--------------|-------------------|------5---5--------5---5----|------5---5--------5---5---4-|
E||--------------|-------------------|--/5-----------/5-----------|--/5-----------/5------------|


  S S S S Q     E  S  S  Q        E  S S Q     E  S  S  E  E     E  S S Q     E  S S Q     
------------------------------|-------------------------------|---------------------------|
------------------------------|-------------------------------|---------------------------|
--4---------------------------|-------------------------------|-----5---5--------5---5----|
------5---5----/5--5p-0h-5----|--/5--5---5----/5--5p-0h-5--4--|--5-----------/5-----------|


   E  S S Q     E  S S S S S S    S S S S Q     E  S S Q        E  S S Q     E  S S Q     
-------------------------------|----------------------------|----------------------------|
-------------------------------|----------------------------|----------------------------|
------5---5--------5---5---4---|--4-------------------------|----------------------------|
--/5-----------/5--------------|------5---5----/5--5---5----|--/5--5---5----/5--5---5----|


  E  S S Q     E  S S Q        E  S S Q     E  S S Q        E  S S Q     E  S S Q     
---------------------------|----------------------------|----------------------------|
---------------------------|----------------------------|----------------------------|
-----5---5--------5---5----|------5---5--------5---5----|----------------------------|
--L-----------/5-----------|--/5-----------/5-----------|--/5--5---5----/5--5---5----|


   E  S S Q     E  S S Q       E  S S Q    E  S S Q       E  S S Q    E  S S Q     
----------------------------|--------------------------|--------------------------|
----------------------------|--------------------------|--------------------------|
----------------------------|--------------------------|--------------------------|
--/5--5---5----/5--5---5----|--L--2---2----L--2---2----|--L--2---2----L--2---2----|


   E  S S Q     E  S S Q        E  S S Q     E  S S Q        E  S S Q     E  S S Q     
----------------------------|----------------------------|----------------------------|
----------------------------|----------------------------|----------------------------|
----------------------------|----------------------------|------5---5--------5---5----|
--/5--5---5----/5--5---5----|--/5--5---5----/5--5---5----|--/5-----------/5-----------|


   E  S S Q     E  S S Q        E  S S Q     E  S S Q        E  S S Q     E  S S Q     
----------------------------|----------------------------|----------------------------|
----------------------------|----------------------------|----------------------------|
------5---5--------5---5----|----------------------------|----------------------------|
--/5-----------/5-----------|--/5--5---5----/5--5---5----|--/5--5---5----/5--5---5----|


  E  S S Q    E  S S Q       E  S S Q    E  S S Q       E  E  E  E  E  E  E  E   
--------------------------|--------------------------|--------------------------|
--------------------------|--------------------------|--------------------------|
--------------------------|--------------------------|--------------------------|
--L--2---2----L--2---2----|--L--2---2----L--2---2----|--5--5--5--5--5--5--5--5--|


  E  E  E  E  E  E  E  E     E  E  E  E  E  E  E  E     E  E  E  E  E  E  E  E   
--------------------------|--------------------------|--------------------------|
--------------------------|--------9--------6--------|--------------------------|
-----------------4--5--4--|--7--7-----7--7-----7--7--|--7--7--7--7--8--8--8--8--|
--5--5--0--5--7-----------|--------------------------|--------------------------|


  E  E  E  E  E  E  E  E     E  E  E  E  E  E  E  E     E  E  E  E  E  E  E  E   
--------------------------|--------------------------|--------------------------|
--------------------------|--------------------------|--------------------------|
--9--9--9--9--9--9--9--9--|-----------------------4--|--5--5--5--5--5--5--5--5--|
--------------------------|--7--7--7--7--7--5--7-----|--------------------------|


  S S E  S S E  S S E  S S E     W                   W                   W                 
------------------------------|-------------------|-------------------|-------------------|
------------------------------|-------------------|-------------------|-------------------|
--5---5--4---4----------------|-------------------|-------------------|-------------------|
----------------7---7--5---5--|-------------------|-------------------|-------------------|


  W                    E  S S Q     E  S S Q        E  S S Q     E  S S Q     
-------------------|----------------------------|----------------------------|
-------------------|----------------------------|----------------------------|
-------------------|----------------------------|----------------------------|
-------------------|--/5--5---5----/5--5---5----|--/5--5---5----/5--5---5----|


   E  S S Q     E  S S Q        E  S S Q     E  S S Q        E  S S Q     E  S S Q     
----------------------------|----------------------------|----------------------------|
----------------------------|----------------------------|----------------------------|
------5---5--------5---5----|------5---5--------5---5----|----------------------------|
--/5-----------/5-----------|--/5-----------/5-----------|--/5--5---5----/5--5---5----|


   E  S S Q     E  S S Q       E  S S Q    E  S S Q       E  S S Q    E  S S Q     
----------------------------|--------------------------|--------------------------|
----------------------------|--------------------------|--------------------------|
----------------------------|--------------------------|--------------------------|
--/5--5---5----/5--5---5----|--L--2---2----L--2---2----|--L--2---2----L--2---2----|


   E  S S Q     E  S S Q        E  S S Q     E  S S E  E     E  E  E  E  E  Q.      
----------------------------|-----------------------------|------------------------|
----------------------------|-----------------------------|--------9--------6------|
----------------------------|-----------------------7-----|--7--7-----7--7---------|
--/5--5---5----/5--5---5----|--/5--5---5----/5--5------5--|------------------------|


  E  E  E  E  E  Q.        E  E   E  E  E   Q.         E   Q.     Q    Q     
------------------------|--------------------------|------------------------|
--------9--------6------|--------11--------11------|--------------7---------|
--7--7-----7--7---------|--9--9------9--9----------|--10--10-----------7----|
------------------------|--------------------------|------------------------|


   E  S S Q     E  S S Q        E  S S Q     E  E  E  E     E  E  E  E  E  E  E  E   
----------------------------|----------------------------|--------------------------|
----------------------------|----------------------------|--------------------------|
------5---5--------5---5----|------5---5--------5--7--5--|--4-----------------------|
--/5-----------/5-----------|--/5-----------/5-----------|-----5--5--5--5--5--5--5--|


  E  E  E  E  E  E  E  E     E  E  E  E  E  E  E  E     E  E  E  E  E  E  E  E   
--------------------------|--------------------------|--------------------------|
--------------------------|--------9--------6--------|--------------------------|
-----------------4--5--4--|--7--7-----7--7-----7--7--|--7--7--7--7--8--8--8--8--|
--5--5--0--5--7-----------|--------------------------|--------------------------|


  E  E  E  E  E  E  E  E     E  E  E  E  E  E  E  E     E  E  E  E  E  E  E  E   
--------------------------|--------------------------|--------------------------|
--------------------------|--------------------------|--------------------------|
--9--9--9--9--9--9--9--9--|-----------------------4--|--5--5--5--5--5--5--5--5--|
--------------------------|--7--7--7--7--7--5--7-----|--------------------------|


  S S E  S S E  S S E  S S E     E  E  E  E  E  E  E  E     E  E  E  E  E  E  E  E   
------------------------------|--------------------------|--------------------------|
------------------------------|--------------------------|--------------------------|
--5---5--4---4----------------|--------------------------|-----------------4--5--4--|
----------------7---7--5---5--|--5--5--5--5--5--5--5--5--|--5--5--0--5--7-----------|


  E  E  E  E  E  E  E  E     E  E  E  E  E  E  E  E     E  E  E  E  E  E  E  E   
--------------------------|--------------------------|--------------------------|
--------9--------6--------|--------------------------|--------------------------|
--7--7-----7--7-----7--7--|--7--7--7--7--8--8--8--8--|--9--9--9--9--9--9--9--9--|
--------------------------|--------------------------|--------------------------|


  E  E  E  E  E  E  E  E     E  E  E  E  E  E  E  E     W                   W                 
--------------------------|--------------------------|-------------------|-------------------|
--------------------------|--------------------------|-------------------|-------------------|
-----------------------4--|--5--5--5--5--5--5--5--5--|-------------------|-------------------|
--7--7--7--7--7--5--7-----|--------------------------|-------------------|-------------------|


  W                   W                   W                   W                   Q     
-------------------|-------------------|-------------------|-------------------|-------|
-------------------|-------------------|-------------------|-------------------|-------|
-------------------|-------------------|-------------------|-------------------|-------|
-------------------|-------------------|-------------------|-------------------|-------|


    E  E  E  E  E  E  E  E     E  E  E  E  E  E  E  E     E  E  E  E  E  E  E  E   
|---------------------------|--------------------------|--------------------------|
|*--------------------------|--------------------------|--------9--------6--------|
|*--------------------------|-----------------4--5--4--|--7--7-----7--7-----7--7--|
|---5--5--5--5--5--5--5--5--|--5--5--0--5--7-----------|--------------------------|


  E  E  E  E  E  E  E  E     E  E  E  E  E  E  E  E     E  E  E  E  E  E  E  E   
--------------------------|--------------------------|--------------------------|
--------------------------|--------------------------|--------------------------|
--7--7--7--7--8--8--8--8--|--9--9--9--9--9--9--9--9--|-----------------------4--|
--------------------------|--------------------------|--7--7--7--7--7--5--7-----|


  E  E  E  E  E  E  E  E     E  E  E  E  E  E  E  E       E  E  E  E  E  E  E  E   
--------------------------|---------------------------||--------------------------|
--------------------------|-----------------4--4-----*||--------------------------|
--5--5--5--5--5--5--5--5--|--5--5--5--5--5--------7--*||--------------------------|
--------------------------|---------------------------||--5--5--5--5--5--5--5--5--|


  E  E  E  E  E  E  E  E     E  E  E  E  E  E  E  E     E  E  E  E  E  E  E  E   
--------------------------|--------------------------|--------------------------|
--------------------------|--------9--------6--------|--------------------------|
-----------------4--5--4--|--7--7-----7--7-----7--7--|--7--7--7--7--8--8--8--8--|
--5--5--0--5--7-----------|--------------------------|--------------------------|


  E  E  E  E  E  E  E  E     E  E  E  E  E  E  Q        E  S S Q     E  S S Q     
--------------------------|-------------------------|----------------------------|
--------------------------|-------------------------|----------------------------|
--9--9--9--9--9--9--9--9--|-------------------------|------5---5--------5---5----|
--------------------------|--7--7--7--7--7--7--7----|--/5-----------/5-----------|


   E  S S E  S S E  S S E  S S     E  S S Q     E  S S Q        E  S S Q     E  E  E  E   
-------------------------------|----------------------------|----------------------------|
-------------------------------|----------------------------|----------------------------|
------5---5--4---4-------------|----------------------------|-------------------------4--|
--/5----------------7---7--5---|--/5--5---5----/5--5---5----|--/5--5---5----/5--5--7-----|


  E  S S Q     E  S S Q        E  S S Q     E  S S E  S S    E  E  E  E  E  E  E  E   
---------------------------|------------------------------|--------------------------|
---------------------------|------------------------------|--------------------------|
--L--7---7--------7---7----|------7---7--------7---7--5---|--5-----------------------|
--------------/5-----------|--/5-----------/5-------------|-----7--7--7--7--7--7--7--|


  E  E  E  E  E  E  E  E     E  E  E  E  E  E  E  E       E   E   E   E   E   E   E   E   
--------------------------|---------------------------|----------------------------------|
--------------------------|---------------------------|----------------------------------|
--9--9--9--9--9--------4--|--5--5--5--5--5--5--5--5S--|--17--17--17--17--17--17--17--17--|
-----------------5--7-----|---------------------------|----------------------------------|


   E   E   E   E   E   E   E   E      E   E   E   E   E   E   E   E   
----------------------------------|----------------------------------|
----------------------------------|----------------------------------|
--17--17--17--17--17--17--17--17--|--14--14--14--14--14--14--14--14--|
----------------------------------|----------------------------------|


   E   E   E   E   E   E   E   E      W                  
----------------------------------|--------------------||
----------------------------------|--------------------||
--14--14--14--14--14--14--14--14--|--12----------------||
----------------------------------|--------------------||




Duration Legend
---------------
W - whole
H - half
Q - quarter
E - 8th
S - 16th
T - 32nd
X - 64th
. - note dotted
|-n-|  - n-tuplets


Tablature Legend
----------------
L - tied note
x - dead note
g - grace note
(n) - ghost note
> - accentuded note
NH - natural harmonic
AH - artificial harmonic
TH - tapped harmonic
SH - semi harmonic
PH - pitch harmonic
h - hammer on
p - pull off
b - bend
br - bendRelease
pb - preBend
pbr - preBendRelease
brb - bendReleaseBend
\n/ - tremolo bar dip
\n - tremolo bar dive
-/n - tremolo bar Release up
/n\ - tremolo bar inverted dip
/n - tremolo bar return
-\n - tremolo bar Release down
S - shift slide
s - legato slide
/ -  slide into from below or out of upwards
\ -  slide into from above or out of downwards
~ - vibrato
W - wide vibrato
tr - trill
TP - tremolo picking
T - tapping
S - slap
P - pop
< - fade in
^ - brush up
v - brush down





Comments


Popular Nada Surf tabs & chords
Do It Again Bass Tabs
High Speed Soul Bass Tabs
Stalemate Bass Tabs
Comes A Time Tabs
Hyperspace Tabs
The Way You Wear Your Head Tabs
Amateur Ukulele
Blankest Year Ukulele
Fruit Fly Ukulele
See These Bones Ukulele


Song lyrics



↑ Back to top | Tablatures and chords are parodies/interpretations of the original songs. You may use it for private study, scholarship, research or language learning purposes only
© 2014 AZChords.com Contact us | Privacy policy | DMCA | Add/correct tabs | Request tabs | Top 50 tabs