» » »

Nada Surf, From Now On Chords (ver.1)

Artists:  A B C D E F G H I J K L M N O P Q R S T U V W X Y Z # 

From Now On Chords (ver.1)

Nada Surf Tabs
 Rating:
4.7/5 (12 votes)
From Now On lessons Tabs too difficult? Try these video lessons and learn fast
1
                
REAL FANS SUPPORT BANDS BY PURCHASING THEIR CD'S!!!


Tuning: Standard

. = Palm-Muted
~ = hold note
^ = vibrate
p = pull off
h = hammer on
/ = slide up
\ = slide down


Capo 4th fret (U can also play it with Power-chords)


Announcement: () means, that u can play these notes as well. Sounds pretty much the same.

You can use a usual acoustic strumming, it doen't matter if u use a different strumming... 



Verse:
    B    F#   E    C#
E---3---(2)--(3)--(3)---------------|
B--(3)---3----1----1----------------|
G---0----2----0----2----------------|     x4
D---0----0----2----2----------------|
A---2---------3----0----------------|
E---3-------------------------------|

Interlude: 0:23
After u played the "F#" at the 4th time, theres a little interlude instead of "E" and "C#":
   E               Eb              C#
E--0---------------2---------------0-------------------|
B--1---------------3---------------1-------------------|
G--0--(hit once)---4--(hit once)---2--(hit twice)------|
D--2---------------4---------------2-------------------|
A--3---------------2---------------0-------------------|
E------------------------------------------------------|

Chorus: 0:28
   E   B   Eb  E
E-(3)--3--(2)-(3)--------------|
B--1--(3)--3---1---------------|
G--0---0---4---0---------------|
D--2---0---4---2---------------|  x4
A--3---2---2---3---------------|
E------3-----------------------|

Verse: 0:54
Play the same as before, but only 3 times.
    B    F#  E   C#
E---3---(2)-(3)-(3)---------------------|
B--(3)---3---1---1----------------------|
G---0----2---0---2----------------------|     x3
D---0----0---2---2----------------------|
A---2--------3---0----------------------|
E---3-----------------------------------|

Interlude: 1:09
Same as before, but now usual strumming:
E---0--2--0--------|
B---1--3--1--------|
G---0--4--2--------|
D---2--4--2--------|
A---3--2--0--------|
E------------------| Now still playing the Interlude:

"Now i turn to the seasons, the sleeping demons..."

    B   Eb  E   C#       B               E    Eb   C#
E---3---2--(3)--0--------3---------------0----2----0-----|
B--(3)--3---1---1-------(3)--------------1----3----1-----|
G---0---4---0---2--------0---4-5-4-2-4---0----4----2-----|
D---0---4---2---2--------0---4-5-4-2-4---2----4----2-----|
A---2---2---3---0--------2---2-3-2-0-2---3----2----0-----|
E---3--------------------3-------------------------------|

Bridge: 1:28 (or "Turn-Up")
   F#       E       B           F#     E       B
E--2--------0-------3-----------2------0-------3------------|
B--3--------1-------3-----------3------1-------3------------|
G--2--x1----0--x1---0--x1-------2-x1---0--x1---0------------|
D--0--------2-------0-----------0------2-------0------------|
A-----------3-------2------------------3-------2------------|
E-------------------3--------------------------3-3333333----|

At this time u play the main chords once and the lower notes in a way what italian would 
"crescendo". That means, that your strumming is getting louder and louder...
U dont have to understand what im talking about :)

   F#           E             B
E--2------------0-------------3---------------------|
B--3------------1-------------0---------------------|
G--2------------0-------------0---------------------|
D--0-0000000----2----22222----0---(000)-------------|
A---------------3--3333333----2-2222222-------------|
E-----------------------------3-3333333-------------|

Outro-Chorus: 1:44
Play the Chorus a few times... til the end.



Thats it! I hope this helped, please rate, comment and correct me!

Cheers...
            
Submit corrections

comments powered by Disqus
↑ Back to top | Nada Surf Chords for From Now On. Lyrics for acoustic guitar and electric guitar. 1 Tablatures and chords are parodies/interpretations of the original songs. You may use it for private study, scholarship, research or language learning purposes only