>
 >
Deeper Well

Deeper Well Guitar Tabs

Nada Surf - Deeper Well chords, tabs, tablatures, lyrics

Guitar lessons | Add/correct | Request | Top 50 tabs Artists:  A B C D E F G H I J K L M N O P Q R S T U V W X Y Z 0-9

Deeper Well Guitar Tabs – Nada Surf

CD, Sheet music, Poster

Do you like Deeper Well? Share with your friends now
Tabs
(play 6 times)
|----------| |----------------|----------------| |
|----------| |----------------|----------------| |
|--(fade)--|.|0-0-0-0---0-0---|0-0-0--00-0-0-0-|.|
|---(in)---|.|7-7-7-7---7-7---|7-7-7--77-7-7-7-|.|
|----------| |7-7-7-7---7-7---|7-7-7--77-7-7-7-| |
|----------| |5-5-5-5---5-5---|5-5-5--55-5-5-5-| |
                                band enter on 3rd repeat

                      (play 4 times)
| |----------------|----------------| |
| |----------------|----------------| |
|.|----------------|----------------|.|
|.|------5---x-7---|--7-7-7-7-7-7-7-|.|
| |7-7-7-3---x-5---|--5-5-5-5-5-5-5-| |
| |5-5-5-----------|----------------| |

VERSE
                      (play 8 times)
| |----------------|----------------| |
| |----------------|----------------| |
|.|----------------|--9-9-9-9-9-9-9-|.|
|.|------5---x-7---|--7-7-7-7-7-7-7-|.|
| |7-7-7-3---x-5---|--5-5-5-5-5-5-5-| |
| |5-5-5-----------|----------------| |

PRE-CHORUS

 gtr. 1               
| |----------------|----------------| |----------------|
| |----------------|----------------| |----------------|
|.|----------------|----------------|.|----------------|
|.|5---5---5-5-5-7-|----7---7-7-7---|.|--7-7-7-7-7-7---|
| |3---3---3-3-3-5-|----5---5-5-5---| |--5-5-5-5-5-5---|
| |----------------|----------------| |----------------|
  |gtr. 2
| |----------------|----------------| |----------------|
| |----------------|----------------| |----------------|
|.|----7---7-7-----|----9---9-9-----|.|--9-9-9-9-9-9---|
|.|----x---x-x-----|----x---x-x-----|.|--x-x-x-x-x-x---|
| |----5---5-5-----|----7---7-7-----| |--7-7-7-7-7-7---|
| |----------------|----------------| |----------------|

CHORUS

 D             C                G                D
|2---2---2-2-2-0-|----0---0-0-0-3-|----3---3-3-3-2-|
|3---3---3-3-3-1-|----1---1-1-1-3-|----3---3-3-3-3-|
|2---2---2-2-2-0-|----0---0-0-0-0-|----0---0-0-0-2-|
|0---0---0-0-0-2-|----2---2-2-2-0-|----0---0-0-0-0-|
|--------------3-|----3---3-3-3-2-|----2---2-2-2---|
|----------------|--------------3-|----3---3-3-3---|

               C                G                D
|----2---2-2-2-3-|----0---0-0-0-3-|----3---3-3-3-2-|
|----3---3-3-3-1-|----1---1-1-1-3-|----3---3-3-3-3-|
|----2---2-2-2-0-|----0---0-0-0-0-|----0---0-0-0-2-|
|----0---0-0-0-0-|----2---2-2-2-0-|----0---0-0-0-0-|
|--------------3-|----3---3-3-3-2-|----2---2-2-2---|
|----------------|--------------3-|----3---3-3-3---|

               C
|----2---2-2-2-0-|----0---0-0-0---|
|----3---3-3-3-1-|----1---1-1-1---|
|----2---2-2-2-0-|----0---0-0-0---|
|----0---0-0-0-2-|----2---2-2-2---|
|--------------3-|----3---3-3-3---|
|----------------|----------------|

go back to verse thingies...I don't know the solo parts YET.

BRIDGE

(power chords)

C -> D -> A -> C -> D -> A -> C -> D



BASS TAB


INTRO

|---|------------|
|---|--(8 bars)--|
|---|--(guitar)--|
|---|------------|

                      play 4 times
|2-2-2-5---x-7---|--7-7-7-7-7-7-7-| |
|------------0---|--0-0-0-0-0-0-0-|.|
|----------------|----------------|.|
|----------------|----------------| |

(band enter)

|----------------|----7---7---7---|----------------|----7---7---7---|
|----------------|----------------|----------------|----------------|
|0-0-0-3---x-5---|--5---5---5---5-|0-0-0-3---x-5---|--5---5---5---5-|
|----------------|----------------|----------------|----------------|

|----------------|----7-------5-7-|----------------|----7---7---7---|
|----------------|--------5-7-----|----------------|----------------|
|0-0-0-3---x-5---|--5---5---------|0-0-0-3---x-5---|--5---5---5---5-|
|----------------|----------------|----------------|----------------|

VERSE

                      play 8 times
|----------------|----------------| |
|----------------|----------------|.|
|0-0-0-3---x-5---|--5-5-5-5-5-5-5-|.|
|----------------|----------------| |

PRE-CHORUS

|----------------|----------------|----------------|----------------|
|----------------|----------------|----------------|----------------|
|3---3---3-3-3-5-|----5---5-5-5---|3---3---3-3-3-5-|----5---5-5-5---|
|----------------|----------------|----------------|----------------|

|----------------|----------------|
|----------------|----------------|
|3---3---3-3-3-5-|----5-5-5-5-5---|
|----------------|----------------|

CHORUS

|----------------|----------------|----------------|----------------|
|----------------|----------------|----------------|----------------|
|5---5---5-5-5-3-|----3---3-3-3---|--------------5-|----5---5-5-5-3-|
|----------------|--------------3-|----3---3-3-3---|----------------|

|----------------|----------------|----------------|
|----------------|----------------|----------------|
|----3---3-3-3---|--------------5-|----3---3-3-3---|
|--------------3-|----3---3-3-3---|----------------|

-play the "band enter" part again (note:  fills vary!)
-play the VERSE again
-play the PRE-CAHORUS again

2nd CHORUS

|----------------|----------------|----------------|----------------|
|----------------|----------------|----------------|----------------|
|5---5---5-5-5-3-|----3---3-3-3---|--------------5-|----5---5-5-5-3-|
|----------------|--------------3-|----3---3-3-3---|----------------|


|----------------|----------------|----------------|----------------|
|----------------|----------------|----------------|----------------|
|----3---3-3-3---|--------------5-|----5---5-5-5-3-|----3---3-3-3---|
|--------------3-|----3---3-3-3---|----------------|--------------3-|

|----------------|----------------|----------------|
|----------------|----------------|----------------|
|--------------5-|----5---5-5-5-3-|----3---3-3-3-3-|
|----3---3-3-3---|----------------|----------------|

BRIDGE

|5^4-5^4-5^4-5^4-|7^6-7^6-7^6-7^6-|----------------|5^4-5^4-5^4-5^4-|
|----------------|----------------|7^6-7^6-7^6-7^6-|----------------|
|----------------|----------------|----------------|----------------|
|----------------|----------------|----------------|----------------|

|7^6-7^6-7^6-7^6-|----------------|5^4-5^4-5^4-5^4-|7^5-7^6-7^6-7^6-|
|----------------|7^6-7^6-7^6-7^6-|----------------|----------------|
|----------------|----------------|----------------|----------------|
|----------------|----------------|----------------|----------------|

GUITAR SOLO: play "band enters" riff

|----------------|----------------|----------------|----------------|
|----------------|----------------|----------------|----------------|
|0-0-0-3---x-5---|--5-5-5-5-5-5-5-|0-0-0-3---x-5---|--5-5-5-5-5-5-5-|
|----------------|----------------|----------------|----------------|

3rd VERSE: play 4 bars only of VERSE

3rd CHORUS/OUTRO


|----------------|----------------|----------------|----------------|
|----------------|----------------|----------------|----------------|
|5---5---5-5-5-3-|----3---3-3-3---|--------------5-|----5---5-5-5-3-|
|----------------|--------------3-|----3---3-3-3---|----------------|


|----------------|----------------|----------------|----------------|
|----------------|----------------|----------------|----------------|
|----3---3-3-3---|--------------5-|----5---5-5-5-3-|----3---3-3-3---|
|--------------3-|----3---3-3-3---|----------------|--------------3-|

|----------------|----------------|----------------|----------------|
|----------------|----------------|----------------|----------------|
|--------------5-|----5---5-5-5-7-|----7---7-7-7---|--------------5-|
|----3---3-3-3---|----------------|--------------3-|----3---3-3-3---|



|----------------|----------------|----------------|----------------|
|----------------|----------------|----------------|----------------|
|----5---5-5-5-3-|----3---3-3-3---|--------------5-|----5---5-5-5-7-|
|----------------|--------------3-|----3---3-3-3---|----------------|

|----------------|----------------|----------------|----------------|
|----------------|----------------|----------------|----------------|
|----7---7-7-7---|--------------5-|----5---5-5-5-3-|----3---3-3-3---|
|--------------3-|----3---3-3-3---|----------------|--------------3-|

|----------------|----------------|----------------|----------------|
|----------------|----------------|----------------|----------------|
|--------------5-|----5---5-5-5-7-|----7---7-7-7---|--------------5-|
|----3---3-3-3---|----------------|--------------3-|----3---3-3-3---|

|----------------|----------------|----------------------|(now it starts
|----------------|----------------|----------------------|getting messy..
|----5---5-5-5-7-|----7---7-7-7-10|----10----10-10-10-12-|all bars are the
|----------------|----------------|----------------------|same length)

|------------------------|------------------------|------------------------|
|------------------------|------------------------|------------------------|
|12-12-12-12-12-12-12-14-|14-14-14-14-14-14-14-15-|15-15-15-15-15-15-15-17-|
|------------------------|------------------------|------------------------|

|------------------------|------------------------|------------------------|
|------------------------|------------------------|------------------------|
|17-17-17-17-17-17-17-17-|17-17-17-17-17-17-17-17-|17-17-17-17-17-17-17-17-|
|------------------------|------------------------|------------------------|

|------------------------|------------------------|------------------------|
|------------------------|------------------------|------------------------|
|17-17-17-17-17-17-17-17-|17-17-17-17-17-17-17-15-|15-15-15-15-15-15-15-14-|
|------------------------|------------------------|------------------------|

|------------------------|----------------|------------------------|
|---------------------0--|0-0-0-0-0-0-0---|------------------------|
|14-14-14-14-14-14-14----|--------------15|15-15-15-15-15-15-15-14-|
|------------------------|----------------|------------------------|

|------------------------|------------------------|------------------------|
|------------------------|------------------------|------------------------|
|14-14-14-14-14-14-14-12-|12-12-12-12-12-12-12-10-|10-10-10-10-10-10-10-5--|
|------------------------|------------------------|------------------------|

|----------------|----------------|----------------|----------------|
|----------------|----------------|----------------|----------------|
|5-5-5-5-5-5-5-3-|3-3-3-3-3-3-3---|--------------5-|5-5-5-5-5-5-5-7-|
|----------------|--------------3-|3-3-3-3-3-3-3---|----------------|

|----------------|------------------------|----------------||
|----------------|------------------------|----------------||
|7-7-7-7-7-7-7-7-|10-10-10-10-10-10-10-10-|5===============||
|----------------|------------------------|----------------||





Comments


Popular Nada Surf tabs & chords
Stalemate Bass Tabs
Always Love Chords
Beautiful Beat Chords
Imaginary Friends Chords
Silent Fighting Chords
Blonde On Blonde Tabs
The Way You Wear Your Head Tabs
Why Are You So Mean To Me? Tabs
Ice On The Wing Ukulele
No Quick Fix Ukulele


Song lyrics



↑ Back to top | Tablatures and chords are parodies/interpretations of the original songs. You may use it for private study, scholarship, research or language learning purposes only
© 2014 AZChords.com Contact us | Privacy policy | DMCA | Add/correct tabs | Request tabs | Top 50 tabs