» » »

Blonde On Blonde Bass

Artists:  A B C D E F G H I J K L M N O P Q R S T U V W X Y Z # 

Blonde On Blonde Bass

(ver. 1)
Nada Surf Tabs
 Rating:
4/5 (4 votes)
    Blonde On Blonde lessons Tabs too difficult? Try these video lessons and learn fast
                Tuning: Standard (E A D G)

~ Let Ring

Verse: Play Quietly, Play with second bass kick                        
G|----------------|----------------|----------------|----------------||
D|----------------|----------------|----------------|----------------||
A|--3~------------|----------------|----------------|----------------||
E|----------------|----------------|----------------|----------------||

Verse 1:
G|----------------|----------------|----------------|----------------||
D|----------------|----------------|----------------|----------------||
A|----------------|----------------|----------------|----------------||
E|--2~------------|----------------|----------------|----------------||

Chorus:
G|---------------|----------------|----------------|----------------||
D|-3-3-3-3-3-3-2-|----------------|----------------|----------------||
A|--------------3|----------------|----------------|----------------||
E|---------------|-5-5-5-5-5-5-5-5|-3-3-3-3-3-3-3-3|-1-1-1-1-1-1-1-1||

Structure:
Intro: Rest 2x
Verse: 3x
Verse1: 1x
Chorus: 2x
Rest of the structure is simple enough. Play the chorus during the guitar solo
            
Submit corrections

↑ Back to top | Nada Surf Bass for Blonde On Blonde. Lyrics for acoustic guitar and electric guitar. Tablatures and chords are parodies/interpretations of the original songs. You may use it for private study, scholarship, research or language learning purposes only