» » »

The Simpsons Tabs (ver.1)

Artists:  A B C D E F G H I J K L M N O P Q R S T U V W X Y Z # 

The Simpsons Tabs (ver.1)

N/A
Rating:
0/5 (0 votes)

Hard to play? Try these video lessons and learn fast.
                (Theme)
THE SIMPSON'S THEME
--------------------------------------------------
--------------------------------------------------
-----14--12------------------------12--12--12-----
------------14--11--12---------12-----------------
-----------------------14--12---------------------
--------------------------------------------------

Just for the hell of it, here's what I've got (I'm pretty sure it's
right...)

E-----------------------------
B------7-9-7------------------
G----8-------8----------------
D--9-----------9---------------
A----------------9-8-8-8-9----
E-----------------------------
            
Hard to play? Try these video lessons and learn fast. | Correct




comments powered by Disqus
↑ Back to top | Tablatures and chords are parodies/interpretations of the original songs. You may use it for private study, scholarship, research or language learning purposes only