» » »

N/A, Misc Riff 9702 Tabs (ver.1)

Artists:  A B C D E F G H I J K L M N O P Q R S T U V W X Y Z # 

Misc Riff 9702 Tabs (ver.1)

N/A Tabs
Rating:
0/5 (0 votes)
Hard to play? Try these video lessons and learn fast.
                Tuning: Standard (E A D G B E)




E|---------0----------0----------0---0-----0-0-0----------||
B|-----------0----------0---------2---2----0-0-2----------||
G|-------2-----2----2-----2----2---2---2---2-2-2----------||
D|------2----------0----------0-----0------2-0-0----------||
A|-----0----------2----------0-------------0-2-0----------||
E|-----------------------------------------0-0-0----------||

E|---------0----------0----------0---0-----0-0-0----------||
B|-----------0----------0---------2---2----0-0-2----------||
G|-------2-----2----2-----2----2---2---2---2-2-2----------||
D|------2----------0----------0-----0------2-0-0----------||
A|-----0----------2----------0-------------0-2-0----------||
E|-----------------------------------------0-0-0----------||

E|---------0----------0----------0---0-----0-0-0----------||
B|-----------0----------0---------2---2----0-0-2----------||
G|-------2-----2----2-----2----2---2---2---2-2-2----------||
D|------2----------0----------0-----0------2-0-0----------||
A|-----0----------2----------0-------------0-2-0----------||
E|-----------------------------------------0-0-0----------||
            

comments powered by Disqus
↑ Back to top | N/A Tabs for Misc Riff 9702. Lyrics for acoustic guitar and electric guitar. Tablatures and chords are parodies/interpretations of the original songs. You may use it for private study, scholarship, research or language learning purposes only