» » »

N/A, Inspector Gadget Tabs (ver.1)

Artists:  A B C D E F G H I J K L M N O P Q R S T U V W X Y Z # 

Inspector Gadget Tabs (ver.1)

N/A Tabs
Rating:
0/5 (0 votes)
Inspector Gadget lessons Tabs too difficult? Try these video lessons and learn fast
                (Theme)


Intro:
e|-----------------------------|
B|-----------------------------|
G|------------------------2-1--|
D|-------0-2----------0-2------|
A|-0-2-3--------0-2-3----------|
E|-----------------------------|

e|-----------------------------|
B|-----------------------------|
G|------------------------2-4--|
D|-------0-2----------0-2------|
A|-0-2-3--------0-2-3----------|
E|-----------------------------|

e|------------------------------------------------|
B|------------------------------------------------|
G|------------------------------------------------|
D|-7-6-----5-4-----7-6----5-4----3-2-----2-0------|
A|-----7-------6-------7------6------2-3-----3-2--|
E|------------------------------------------------|

Main part:
e|---------------------|----------------|
B|---------------------|----------------|
G|---------------------|-----------2-1--|
D|-------0-2---1---0---|-------0-2------|
A|-0-2-3-----3---2---3-|-0-2-3----------|
E|---------------------|----------------|

e|---------------------|------------------1-|
B|---------------------|--------------3--3--|
G|---------------------|-2-----2-----3--3---|
D|-------0-2---1---0---|-----2------3-------|
A|-0-2-3-----3---2---3-|----------1---------|
E|---------------------|--------------------|

e|---------------------|-----------------|
B|---------------------|-----------------|
G|---------------------|-----------2-1---|
D|-------0-2---1---0---|-------0-2-------|
A|-0-2-3-----3---2---3-|-0-2-3-----------|
E|---------------------|-----------------|

e|---------------------|-----------------|
B|---------------------|-----------------|
G|---------------------|-----------------|
D|-------0-2---1---0---|-----------------|
A|-0-2-3-----3---2---3-|-------------3-2-|
E|---------------------|-1-0-1-0-5-4-----|

Bridge (go, gadget, go! part):
e|-------1-1--------------------------|
B|------------------------------------|
G|-------------2-4-4-2-0---2-2-0------|
D|--0---0----------------3-------3-2--|
A|----0-------------------------------|
E|------------------------------------|

e|-------1-1--------------------------|
B|------------------------------------|
G|-------------2-4-4-2-1--------------|
D|--0---0----------------3-2-2-0------|
A|----0--------------------------3-2--|
E|------------------------------------|

Return to main part:
e|---------------------|----------------|
B|---------------------|----------------|
G|---------------------|-----------2-1--|
D|-------0-2---1---0---|-------0-2------|
A|-0-2-3-----3---2---3-|-0-2-3----------|
E|---------------------|----------------|

e|---------------------|
B|---------------------|
G|---------------------|
D|-------0-2---1---0---|
A|-0-2-3-----3---2---3-|
E|---------------------|

Outro:
e|---------------------|---------------------|
B|---------------------|-1-1-0---------------|
G|---------------------|-------3-2-1-0-------|
D|-----------------3-2-|---------------3-2-0-|
A|-------------3-2-----|---------------------|
E|-1--0--5--4----------|---------------------|

e|---------------------|
B|---------------------|
G|---------------------|
D|---------------------|
A|-0-------------0--1--|
E|---4-3-2-1---0-------|
            
Submit corrections

comments powered by Disqus
↑ Back to top | N/A Tabs for Inspector Gadget. Lyrics for acoustic guitar and electric guitar. Tablatures and chords are parodies/interpretations of the original songs. You may use it for private study, scholarship, research or language learning purposes only