» » »

Ty I Ja I Wszystko Co Mamy Bass tabs (ver.1)

Artists:  A B C D E F G H I J K L M N O P Q R S T U V W X Y Z # 

Ty I Ja I Wszystko Co Mamy Bass tabs (ver.1)

Myslovitz
Rating:
0/5 (0 votes)

Hard to play? Try these video lessons and learn fast.
                
0:47
Chorus                                                                             x2
G|----------------------------------------------------------------------------------|
D|----------------------------------------------------------------------------------|
A|------------------------------------------33333-775-33333-757---------------------|
E|--33333-775-33333-757-55555-997-55555-979--------------------33333-757-33333-775--|

1:30
Verse                                                                                    x2
G|----------------------------------------------------------------------------------------|
D|--555-----57-555----57999-----911-999-----98777-----79-777-----77-555--------555-----34-|
A|------555--------555------999---------999-------777--------777--------555-21-----555----|
E|----------------------------------------------------------------------------------------|

2:13
Chorus                                                                             
G|--------------------------------------------------------------|
D|--------------------------------------------------------------|
A|------------------------------------------33333-775-33333-757-|
E|--33333-775-33333-757-55555-997-55555-979---------------------|

2:29
Solo
G|----------------------------------------------------------------------------------------|
D|--555-----57-555----57999-----911-999-----98777-----79-777-----77-555--------555-----34-|
A|------555--------555------999---------999-------777--------777--------555-21-----555----|
E|----------------------------------------------------------------------------------------|

2:50
Final Chorus                          x2
G|-------------------------------------|
D|-------------------------------------|
A|----------33333333----------22222252-|
E|-55555555----------33333333----------|

G|-------------------------------------|
D|-------------------------------------|
A|----------33333333----------22222222-|
E|-55555555----------33333333----------|

Ending
G|----------|
D|----------|
A|----3~----|
E|-5~----3~-|

please rate it! 
            
Hard to play? Try these video lessons and learn fast. | Correct




comments powered by Disqus
↑ Back to top | Tablatures and chords are parodies/interpretations of the original songs. You may use it for private study, scholarship, research or language learning purposes only