» » »

Myslovitz, Sprzedawcy Marzen Bass tabs (ver.1)

Artists:  A B C D E F G H I J K L M N O P Q R S T U V W X Y Z # 

Sprzedawcy Marzen Bass tabs (ver.1)

Myslovitz Tabs
Rating:
0/5 (0 votes)
Sprzedawcy Marzen lessons Tabs too difficult? Try these video lessons and learn fast
                -------------------------------------------------------------------------------
-------------------------------------------------------------------------------


Tuning: Standard

Verse & solo

|-----------------------|-----------------------|-----------------------|
|-----------------------|-----------------------|-----------------------|
|-2----2----5--5--5--5--|-2----2----------------|-2----2----5--5--5--5--|
|-----------------------|-----------3--3--3--3--|-----------------------|

  
|-----------------------|
|-----------------------|
|-----------------------|
|-2----2----0--0--0--0--|


Chorus
                       after 2nd chorus -> blank
|--------------------|-------------------------|-------------------------|
|--------------------|-------------------------|-------------------------|
|--------------------|-------------------------|-0--0--0--0--0--0--0--0--|
|---3--3-------------|-0--0--0--0--0--0--0--0--|-------------------------|


|---------------------------|
|---------------------------|
|--4--4--4--4--4--4--4--4---|
|---------------------------|


| /  slide up
| \  slide down
| h  hammer-on
| p  pull-off
| ~  vibrato
| +  harmonic
| x  Mute note
===============================================================================
            

comments powered by Disqus
↑ Back to top | Myslovitz Bass for Sprzedawcy Marzen. Lyrics for acoustic guitar and electric guitar. Tablatures and chords are parodies/interpretations of the original songs. You may use it for private study, scholarship, research or language learning purposes only