» » »

Myslovitz, Nocnym Pociagiem Az Do Konca Swiata Bass tabs (ver.1)

Artists:  A B C D E F G H I J K L M N O P Q R S T U V W X Y Z # 

Nocnym Pociagiem Az Do Konca Swiata Bass tabs (ver.1)

Myslovitz Tabs
 Rating:
4/5 (4 votes)
Nocnym Pociagiem Az Do Konca Swiata lessons Tabs too difficult? Try these video lessons and learn fast
                Intro
-------------------------------|--------------------------------|----------------------------------|
-------------------------------|--------2-22-2-7-77-7-77-7-7----|--------2-22-2-7-77-7/14-14h12h14-|
-----9754-3-33-9753------------|-5-55-5-------------------------|-5-55-5---------------------------|
5-55----------------1-11-0-1-11|-----------------------------134|----------------------------------|

Verse
-------------------------------|-----------------------------|
-------------------------------|--------2-22-2-7-77-7-77-7-7-|
-----9754-3-33-9753------------|-5-55-5----------------------|
5-55----------------1-11-0-1-11|-----------------------------|

-------------------------------|--------------------------------|
7-77---------------------------|-------2-22-2-7-77-7/14-14h12h14|
-----9754-3-33-9753------------|-5-55-5-------------------------|
--------------------1-11-0-1-11|--------------------------------|

Bridge
-------------------------------|--------------------------------|
-------------------------------|-------2-22-2-7-77-7/14-14h12h14|
-----9754-3-33-9753------------|-5-55-5-------------------------|
5-55----------------1-11-0-1-11|--------------------------------|

Verse 2
-------------------------------|-------------------------------------|
-------------------------------|--------2-22-2-7-77-5-77/14-14h12h14-|
-----9754-3-33-9753------------|-5-55-5------------------------------|
5-55----------------1-11-0-1-11|-------------------------------------|

-------------------------------|---------------------------------|
-------------------------------|--------2-22-2-7-77-5-77-7530----|
-----9754-3-33-9753------------|-5-55-5--------------------------|
5-55----------------1-11-0-1-11|---------------------------------|
Chorus
-------------------------------------------------------------------|
---------------------------------2222222222222222333333333332032032|
-3333333333333333--------------------------------------------------|
-----------------3333333333333333----------------------------------|

------------------------------------------------------------------------|
---------------------------------222222222222222233333333333/14-14h12h14|
-3333333333333333-------------------------------------------------------|
-----------------3333333333333333---------------------------------------|

Solo
-------------------------------|--------------------------------|
-------------------------------|--------2-22-2-7-77-7-77-7-7----|
-----9754-3-33-9753------------|-5-55-5-------------------------|
5-55----------------1-11-0-1-11|-----------------------------134|

Verse 3
-------------------------------|--------------------------------|
-------------------------------|-------2-22-2-7-77-7/14-14h12h14|
-----9754-3-33-9753------------|-5-55-5-------------------------|
5-55----------------1-11-0-1-11|--------------------------------|

-------------------------------|---------------------------------|
-------------------------------|--------2-22-2-7-77-5-77-7530----|
-----9754-3-33-9753------------|-5-55-5--------------------------|
5-55----------------1-11-0-1-11|---------------------------------|

Chorus
-------------------------------------------------------------------|
---------------------------------2222222222222222333333333332032032|
-3333333333333333--------------------------------------------------|
-----------------3333333333333333----------------------------------|
                                                    
-------------------------------------------------|----------|
---------------------------------2222222222222222|3333/7777-|
-3333333333333333--------------------------------|----------|
-----------------3333333333333333----------------|----------|

|-----------|
|-----------|  x4
|-3333/7777-|
|-----------|

Solo2
--------------------------------------------------------------------|
--------------------------------------------------------------------|
---------77777777-555555555555555-8888888-----------------------3-5-|
55555555----------------------------------66666666-5555555555535-5--|

--------------------------------------------------------------------|
--------------------------------------------------------------------|
---------77777777-555555555555555-8888888-------------------------5-|
55555555----------------------------------66666666-5555555555535-3--|
Ending
-------------------------------------------------------------------|
---------------------------------2222222222222222333333333332032032|
-3333333333333333--------------------------------------------------|
-----------------3333333333333333----------------------------------|

----------------------------------------------------|
---------------------------------22222222222222223~-|
-3333333333333333-----------------------------------|
-----------------3333333333333333-------------------|
            
Submit corrections

comments powered by Disqus
↑ Back to top | Myslovitz Bass for Nocnym Pociagiem Az Do Konca Swiata. Lyrics for acoustic guitar and electric guitar. Tablatures and chords are parodies/interpretations of the original songs. You may use it for private study, scholarship, research or language learning purposes only