» » »

Fikcja Jest Modna Tabs (ver.1)

Artists:  A B C D E F G H I J K L M N O P Q R S T U V W X Y Z # 

Fikcja Jest Modna Tabs (ver.1)

Myslovitz
Rating:
0/5 (0 votes)

Hard to play? Try these video lessons and learn fast.
                Myslovitz - Fikcja jest modna  by Mateoz555
Tuning - Standard

E---------------------------------------| 
B---------------------------------------| 
G---------------------------------------| 
D--8--88--8--8--88---8--88--8--8---3-5--| x4
A--8--88--8--8--88---8--88--8--8---3-5--| 
E--6--66--6--6--66---6--66--6--6---1-3--|


chorus. (przez tyle lat):

E---------------------------------------| 
B---------------------------------------| 
G--7--77--7--7--77---7--77--7--7--------| 
D--8--88--8--8--88---8--88--8--8---3-5--| x2
A--8--88--8--8--88---8--88--8--8---3-5--| 
E--6--66--6--6--66---6--66--6--6---1-3--|


second verse:
E---------------------------------------| 
B---------------------------------------| 
G---------------------------------------| 
D--8--88--8--8--88---8--88--8--8---3-5--| x3
A--8--88--8--8--88---8--88--8--8---3-5--| 
E--6--66--6--6--66---6--66--6--6---1-3--|


chorus. (przez tyle lat):

E---------------------------------------| 
B---------------------------------------| 
G--7--77--7--7--77---7--77--7--7--------| 
D--8--88--8--8--88---8--88--8--8---3-5--| x2
A--8--88--8--8--88---8--88--8--8---3-5--| 
E--6--66--6--6--66---6--66--6--6---1-3--|


bridge (zyjemy w czasach satysfakcji):

E-----------------4~------------------4~---------------------------------| 
B------------------------------------------------------------------------| 
G-------7-------------------7-------------------7---------10-------------| 
D--7----7----6---------7----7----6---------7----7----6----8--10----10-15-| 
A--7----5----6---------7----5----6---------7----5----6----8--10----10-15-| 
E--5---------4---------5---------4---------5---------4-------8-----8--13-|


E-------| 
B-------| 
G-------| 
D--3-5--| 
A--3-5--| 
E--1-3--|

E---------------------------------------| 
B---------------------------------------| 
G--7--77--7--7--77---7--77--7--7--------| 
D--8--88--8--8--88---8--88--8--8---3-5--| x2
A--8--88--8--8--88---8--88--8--8---3-5--| 
E--6--66--6--6--66---6--66--6--6---1-3--|


chorus. (przez tyle lat):

E---------------------------------------| 
B---------------------------------------| 
G--7--77--7--7--77---7--77--7--7--------| 
D--8--88--8--8--88---8--88--8--8---3-5--| x2
A--8--88--8--8--88---8--88--8--8---3-5--| 
E--6--66--6--6--66---6--66--6--6---1-3--|

E----------------------------------| 
B----------------------------------| 
G--7--xx--7--xx--7--xx--7--xx--7~--| 
D--8--xx--8--xx--8--xx--8--xx--8~--| 
A--8--xx--8--xx--8--xx--8--xx--8~--| 
E--6--xx--6--xx--6--xx--6--xx--6~--|

that's whole song.
            
Hard to play? Try these video lessons and learn fast. | Correct




comments powered by Disqus
↑ Back to top | Tablatures and chords are parodies/interpretations of the original songs. You may use it for private study, scholarship, research or language learning purposes only