» » »

Myslovitz, Dlugosc Dzwieku Samotnosci Bass tabs (ver.1)

Artists:  A B C D E F G H I J K L M N O P Q R S T U V W X Y Z # 

Dlugosc Dzwieku Samotnosci Bass tabs (ver.1)

Myslovitz Tabs
 Rating:
4/5 (4 votes)
Dlugosc Dzwieku Samotnosci lessons Tabs too difficult? Try these video lessons and learn fast
1
                -------------------------------------------------------------------------------
-------------------------------------------------------------------------------


Tuning: Standard

Bridge & Verse

|-----------------------|-----------------0----|-----------------------|
|--3----3------------3--|--3----3--------------|--0----0------------0--|
|-----------------------|----------------------|-----------------------|
|-----------------------|----------------------|-----------------------|

 
|----------------------|--2----2------------2--|--2----2---------4----|
|--0----0---------0----|-----------------------|----------------------|
|----------------------|-----------------------|----------------------|
|----------------------|-----------------------|----------------------|


|--0----0------------0--|--0----0---------0----|
|-----------------------|----------------------|
|-----------------------|----------------------|
|-----------------------|----------------------|

Chorus
   
|-----------------------|----------------------|-----------------------|
|-----------------------|----------------------|-----------------------|
|-----------------------|----------------------|-----------------------|
|--6----6------------6--|--6----6---------6\---|--1----1------------1--|


|----------------------|-----------------------|----------------------|
|----------------------|-----------------------|----------------------|
|----------------------|--5----5------------5--|--5----5---------5----|
|--1----1---------1----|-----------------------|----------------------|

  
|-----------------------|----------------------|
|-----------------------|----------------------|
|--3----3------------3--|--3----3---------3----|
|-----------------------|----------------------|

Song structure:

bridge		x1
verse		x2
chorus		x2
verse		x2
chorus		x4
verse		x2
bridge		x2
pause
chorus		x2
verse		x4


| /  slide up
| \  slide down
| h  hammer-on
| p  pull-off
| ~  vibrato
| +  harmonic
| x  Mute note
===============================================================================
            
Submit corrections

comments powered by Disqus
↑ Back to top | Myslovitz Bass for Dlugosc Dzwieku Samotnosci. Lyrics for acoustic guitar and electric guitar. 1 Tablatures and chords are parodies/interpretations of the original songs. You may use it for private study, scholarship, research or language learning purposes only