» » »

Myslovitz, Chlopcy Bass tabs (ver.1)

Artists:  A B C D E F G H I J K L M N O P Q R S T U V W X Y Z # 

Chlopcy Bass tabs (ver.1)

Myslovitz Tabs
 Rating:
4/5 (4 votes)
Chlopcy lessons Tabs too difficult? Try these video lessons and learn fast
1
                -------------------------------------------------------------------------------
-------------------------------------------------------------------------------


Tuning: Standard

easier than it looks ;)

Verse & Chorus
|----------------------|----------------------|----------------------|
|----------------------|----------------------|--5----5----5----5----|
|--3----3----3----3----|--3----3----3----3----|----------------------|
|----------------------|----------------------|----------------------|


|----------------------|----------------------|----------------------|
|--5----5----5----5----|--0----0----0----0----|--0----0----0----0----|
|----------------------|----------------------|----------------------|
|----------------------|----------------------|----------------------|


|----------------------|-----------------------|
|--3----3----3----3----|--3----3----3----3-----|
|----------------------|-----------------------|
|----------------------|-----------------------|


| /  slide up
| \  slide down
| h  hammer-on
| p  pull-off
| ~  vibrato
| +  harmonic
| x  Mute note
===============================================================================
            
Submit corrections

comments powered by Disqus
↑ Back to top | Myslovitz Bass for Chlopcy. Lyrics for acoustic guitar and electric guitar. 1 Tablatures and chords are parodies/interpretations of the original songs. You may use it for private study, scholarship, research or language learning purposes only