» » »

Chcialbym Umrzec Z Milosci Bass tabs (ver.1)

Artists:  A B C D E F G H I J K L M N O P Q R S T U V W X Y Z # 

Chcialbym Umrzec Z Milosci Bass tabs (ver.1)

Myslovitz
Rating:
0/5 (0 votes)

Hard to play? Try these video lessons and learn fast.
                Intro
G|------------------------------------------|
D|------------------------------------------|
A|-7----79-10-9-10-91012-3--530--------5-78-|
E|-------------------------------3-530------|

G|---------------------------------------------|--------|-----|
D|---------------------------------------------|--------|-----|
A|-7----79-10-9-10-91012-3--530--------5-55-77-|-88-99--|-878-|
E|                               3-530---------|--------|-----|

G|------------------------------|-----------|-------------|
D|------------------------------|-----------|-------------|
A|-----------3-033-530----------|5-55-77-87-|10--10-12----|
E|-5--45-57------------3-03-530-|-----------|----------10\|


G|-----------------------------------------------------|
D|-----------------------------------------------------|
A|-7----79-10-9-10-91012-3--/13~530---------5-/15-1515-|
E|------------------------------------3-530------------|

G|---------------------------------------------|--------|-----|
D|---------------------------------------------|--------|-----|
A|-7----79-10-9-10-91012-3--530--------5-55-77-|-88-99--|-878-|
E|-------------------------------3-530---------|--------|-----|


G|------------------------------------------|-------------|-----------|
D|------------------------------------------|-------------|-----------|
A|-----------3-033-530----------|5-55-77-87-|10--10-12----|-----------|
E|-5--45-57--------------3--530-|-----------|----------10\|--55555555-|


G|------------------------------------------|-------------|--------|
D|------------------------------------------|-------------|--------|
A|-----------3-033-530----------|5-55-77-87-|10--10-12----|--------|
E|-5--45-57--------------3--530-|-----------|----------10\|--10/15-|

G|------------------------------------------|-------------|
D|------------------------------------------|-------------|
A|-----------3-033-530----------|5-55-77-89-|10--10-12----|
E|-5--45-57--------------3--530-|-----------|----------10\|
            
Hard to play? Try these video lessons and learn fast. | Correct




comments powered by Disqus
↑ Back to top | Tablatures and chords are parodies/interpretations of the original songs. You may use it for private study, scholarship, research or language learning purposes only