» » »

Myslovitz, Alexander Bass tabs (ver.1)

Artists:  A B C D E F G H I J K L M N O P Q R S T U V W X Y Z # 

Alexander Bass tabs (ver.1)

Myslovitz Tabs
 Rating:
4/5 (4 votes)
Alexander lessons Tabs too difficult? Try these video lessons and learn fast
                -------------------------------------------------------------------------------
-------------------------------------------------------------------------------


Tuning: Standard

Intro. X3
G|--------|--------|--------|--------|--------|--------|--------|---------|
D|--------|--------|--------|--------|--------|--------|--------|---------|
A|-7-7-7-7|-7-7-7-7|-3-3-3-3|-3-3-3-3|--------|--------|--------|---------|
E|--------|--------|--------|--------|-3-3-3-3|-3-3-3-3|-2-2-2-2|-2-2-2-2-|

Verse
G|--------|--------|--------|--------|--------|--------|--------|---------|
D|--------|--------|--------|--------|--------|--------|--------|---------|
A|-7-7-7-7|-7-7-7-7|-3-3-3-3|-3-3-3-3|--------|--------|--------|---------|
E|--------|--------|--------|--------|-3-3-3-3|-3-3-3-3|-2-2-2-2|-2-2-2-2-|

G|--------|--------|--------|--------|--------|--------|--------|---------|
D|--------|--------|--------|--------|--------|--------|--------|---------|
A|-7-7-7-7|-7-7-7-7|-3-3-3-3|-3-3-3-3|--------|--------|-5-5-5-5|-5-5-5-5-|
E|--------|--------|--------|--------|-3-3-3-3|-3-3-3-3|--------|---------|

G|--------|--------|--------|--------|--------|--------|--------|---------|
D|--------|--------|--------|--------|--------|--------|--------|---------|
A|-7-7-7-7|-7-7-7-7|-3-3-3-3|-3-3-3-3|--------|--------|--------|---------|
E|--------|--------|--------|--------|-3-3-3-3|-3-3-3-3|-2-2-2-2|-2-2-2-2-|

G|--------|--------|--------|--------|--------|--------|--------|---------|
D|--------|--------|--------|--------|--------|--------|--------|---------|
A|-7-7-7-7|-7-7-7-7|-3-3-3-3|-3-3-3-3|--------|--------|-2-2-2-2|-2-2-2-2-|
E|--------|--------|--------|--------|-3-3-3-3|-3-3-3-3|--------|---------|

G|------------|---------|
D|------------|---------|
A|--2\10-10-10|-9-9-10-9|
E|------------|---------|

Chorus: x2
G|--------|--------|--------|--------|--------|--------|--------|---------|
D|--------|--------|--------|--------|--------|--------|--------|---------|
A|-7-7-7-7|-7-7-7-7|-3-3-3-3|-3-3-3-3|--------|--------|-5-5-5-5|-5-5-5-5-|
E|--------|--------|--------|--------|-3-3-3-3|-3-3-3-3|--------|---------|

Verse.

Chorus x2

Pause

Chorus x4

and finish on :
G|---------|
D|---------|
A|-7-------|
E|---------|
            
Submit corrections

comments powered by Disqus
↑ Back to top | Myslovitz Bass for Alexander. Lyrics for acoustic guitar and electric guitar. Tablatures and chords are parodies/interpretations of the original songs. You may use it for private study, scholarship, research or language learning purposes only