» » »

Mymp, Especially For You Chords (ver.1)

Artists:  A B C D E F G H I J K L M N O P Q R S T U V W X Y Z # 

Especially For You Chords (ver.1)

Mymp Tabs
 Rating:
4/5 (4 votes)
Especially For You lessons Tabs too difficult? Try these video lessons and learn fast
                Especially For you
Intro:   C9                                                           Ebm9 (068766)
               Fm7      
Especially for you          
                 D7                              Gm 
I wanna let you know what I was going      Through
                      C9
All the time we were apart I thought of
   F              F/E            Ebm9         Dm          Bb
Y---o---u ,   You were  in my   heart     My love never change
     Bb               C9                  Fm7
I still feel the same     Especially for you
                      D7                          Gm 
I wanna tell you I was feeling that way    too
                        C9
And if dreams were wings, you know I have flown to 
  F              F/E            Ebm9         Dm          Bb
Y---o---u      to   be where you are    no matter how far

   And now that I'm next to you

Refrain: 
             F
   No more dreaming about tomorrow
             A7
   Forget the loneliness and the sorrow
          Dm7                           Bb
   I've got to say its all because of  you and now we're back  

Chorus: (this part is a little tricky with tapping and dapat mabilis kamay nyo)

      Am          Dm7         Gm         C
    Toge -     ther    ,  Toge   -    ther   I wanna   
      Am          Dm7                 Gm         C
    Show      you my heart is       oh   so    true  and all the 
      Am          Dm7                 Gm         C
    Love      I had          is       especially     for you

Verse 2
Especially for you 
I wanna tell you, you mean all the world to me
How I'm certain that our love was meant to be
You changed my life
You showed me the way
+And now that I'm next to you

Refrain 2:(just like refrain)
ive waited long enough to find you
I wanna put all the hurt behind you Oh,
And I wanna bring out all the love inside you,Oh

(CHORUS)
Adlib:
E---------------------------------------------------------|
B--------------------------------------------7-8s10-8-----|
G---7-9-9s10-9-7-7h9-7s5-------5-7-7-7-8-7-8--------------|
D--7-------------------------7----------------------------|
A--------------------------5------------------------------|
E---------------------------------------------------------|

E---------------------------------------------------------|
B---------------------------------------------------------|
G---------------------------------------------------------|
D--10p8-10p8-10-8-10-10s12-10-8-7-------------------------|
A---------------------------------------------------------|
E---------------------------------------------------------|
repeat refrain
repeat chorus
Ending:
         C9    F
            
Submit corrections

comments powered by Disqus
↑ Back to top | Mymp Chords for Especially For You. Lyrics for acoustic guitar and electric guitar. Tablatures and chords are parodies/interpretations of the original songs. You may use it for private study, scholarship, research or language learning purposes only