» » »

Sister Sneaker Sister Soul Tabs (ver.1)

Artists:  A B C D E F G H I J K L M N O P Q R S T U V W X Y Z # 

Sister Sneaker Sister Soul Tabs (ver.1)

My Latest Novel
Rating:
0/5 (0 votes)

Hard to play? Try these video lessons and learn fast.
                


Standard Tuning: [Capo IV]

Chords used:
    EADGBe
C:  032010
F:  133211



Verse tab riff & chords:
   C
e|------------------------------------------------|
B|------------------------------------------------|
G|----------------0-------------------------0-----|
D|---0-0h2----2------2---2---0-0h2------2-----3-2-| 
A|-3--------3---2------3------------3-3---3-------|
E|------------------------------------------------|
 
   F
e|-------------------------------------------------------------|
B|---1-----1-----------1-----------1-----1-----------1---------|
G|-----2-----2---0h2-----2---0h2-----2-----2---0h2-----2---0h2-|
D|-------3-----3-----3-----3-----------3-----3-----3-----3-----| 
A|-------------------------------------------------------------|
E|-1-----------------------------1-----------------------------|


Verse 1 chords: [use verse riff throughout]
C                             C                         F           
  I only know her first name,   I only know her by her fame
                       C
It seems to hide in my brain
                                                               F                        
Run away with a broken moment, hide away and wait for me in my dreams
                     C
Dreams of me and my girl 
                                                                        F
Carrie comes with a copied promise, stay awake all night and she can be free
                         C
To tell me everything is true
                                                                           F
Sunshine comes and steals my nite time, flowers wave & they try & liberate me
                     C                                               F
Hiding away from her dreams, ba ba da ba ba ba ba, ba ba da ba ba ba ba

ba ba da ba ba ba ba


Verse 2: [use verse 1 chords or verse riff]
Stay awake and hide from Carrie
She comes along and she sings to me in my dreams
Haunting me in my view
Crash again into her morning, Im all alone in the restlessness of her pain
Free from all of her style
Juxtaposed with the light of sunshine, I hide away from her political view
Flowers that liberate me
Go to sleep and await the night time
Hiding from the light that she brings with her
Policies of the worst


Verse 3: [use verse 1 chords or verse riff]
I only know her first name, I only know her by her fame
It seems to hide in my brain
Get up early to sit and sip wine, flowers say that everything will be fine
Just like all the old times
            
Hard to play? Try these video lessons and learn fast. | Correct




comments powered by Disqus
↑ Back to top | Tablatures and chords are parodies/interpretations of the original songs. You may use it for private study, scholarship, research or language learning purposes only