» » »

My Latest Novel, Pretty In A Panic Bass tabs (ver.1)

Artists:  A B C D E F G H I J K L M N O P Q R S T U V W X Y Z # 

Pretty In A Panic Bass tabs (ver.1)

My Latest Novel Tabs
Rating:
0/5 (0 votes)
Pretty In A Panic lessons Tabs too difficult? Try these video lessons and learn fast
                -------------------------------------------------------------------------------
-------------------------------------------------------------------------------

beautiful song
havent listened to it properly as trying to keep the noise down cos my housemates may well be asleep. 
ithink its right though
welll back to my dissertation...


G|-----5--5--5--5--4--4--4--4---9-10-9-10-9-10-9--7-----|
D|------------------------------------------------------|
A|------------------------------------------------------|
E|------------------------------------------------------|
repeat lots


later it goes
G|--5-5-5-5-5-5-5-5-4-4-4-4-4-4-4-4-9-10-9-10-9-10-9--7--|
D|-------------------------------------------------------|
A|-------------------------------------------------------|
E|-------------------------------------------------------|

you can play it thusly if you so desire...
G|--------------------------9-10-9-10-9-10-9--7----------|
D|-----10-10-10-10-9-9-9-9-------------------------------|
A|-------------------------------------------------------|
E|-------------------------------------------------------|
            

comments powered by Disqus
↑ Back to top | My Latest Novel Bass for Pretty In A Panic. Lyrics for acoustic guitar and electric guitar. Tablatures and chords are parodies/interpretations of the original songs. You may use it for private study, scholarship, research or language learning purposes only