>
 >
You Be Trollin While I Be Rollin

You Be Trollin While I Be Rollin Guitar Tabs

My Heart To Fear - You Be Trollin While I Be Rollin chords, tabs, tablatures, lyrics

Guitar lessons | Add/correct | Request | Top 50 tabs Artists:  A B C D E F G H I J K L M N O P Q R S T U V W X Y Z 0-9

You Be Trollin While I Be Rollin Guitar Tabs – My Heart To Fear

CD, Sheet music, Poster

Do you like You Be Trollin While I Be Rollin? Share with your friends now
Bass TabsTabs
-------------------------------------------------------------------------------
            You Be Trollin' While I be Rollin' - My Heart to Fear
-------------------------------------------------------------------------------

Tuning: LEAD GUITAR(CGCFAC); RHYTHM GUITAR(CGCFAD)

LEAD GUITAR-DALE UPRIGHT 

C  :----------------|----------------|4-h5-p4-p0-1-h4-p1-0-----------|
A  :----------------|----------------|-------------------------------|
F  :----------------|----------------|-------------------------------|
C  :----------------|----------------|---------------------0-0*-0-0*-|
G  :----------------|----------------|---------------------0-0*-0-0*-|
C  :----------------|----------------|---------------------0-0*-0-0*-|

C  :--------------------------------|--------------------------------|
A  :--------------------------------|--------------------------------|
F  :--------------------------------|--------------------------------|
C  :5-h7-0-0-0-0-7-0-5-0-0-8-0-0-7-0|5-h7-0-0-0-0-4-0-5-0-0-1-0-4-0-0|
G  :--------------------------------|--------------------------------|
C  :--------------------------------|--------------------------------|

C  :--------------------------------|-------------------------------------|
A  :--------------------------------|-------------------------------------|
F  :--------------------------------|-------------------------------------|
C  :5-h7-0-0-0-0-7-0-5-0-0-8-0-0-7-0|5-0-0-7-0-0-5-0-4-h5-p4-p0-1-h4-p1-p0|
G  :--------------------------------|-------------------------------------|
C  :--------------------------------|-------------------------------------|

C  :--------------------------------|--------------------------------|
A  :--------------------------------|--------------------------------|
F  :--------------------------------|--------------------------------|
C  :5-h7-0-0-0-0-7-0-5-0-0-8-0-0-7-0|5-h7-0-0-0-0-4-0-5-0-0-1-0-4-0-0|
G  :--------------------------------|--------------------------------|
C  :--------------------------------|--------------------------------|

C  :--------------------------------|-------------------------------------|
A  :--------------------------------|-------------------------------------|
F  :--------------------------------|-------------------------------------|
C  :5-h7-0-0-0-0-7-0-5-0-0-8-0-0-7-0|8-h11-p8-p0-5-h8-p5-p0-4-h7-p4-p0*---|
G  :--------------------------------|-------------------------------------|
C  :--------------------------------|-------------------------------------|

C  :5-h7-0-0-0-0-7-0-5-0-0-8-0-0-7-0|5-h7-0-0-0-0-4-0-5-0-0-1-0-4-0-0|
A  :--------------------------------|--------------------------------|
F  :--------------------------------|--------------------------------|
C  :--------------------------------|--------------------------------|
G  :--------------------------------|--------------------------------|
C  :--------------------------------|--------------------------------|

C  :5-h7-0-0-0-0-7-0-5-0-0-8-0-0-7-0|5-0-0-7-0-0-5-0-4-h5-p4-p0-1-h4-p1-p0|
A  :--------------------------------|-------------------------------------|
F  :--------------------------------|-------------------------------------|
C  :--------------------------------|-------------------------------------|
G  :--------------------------------|-------------------------------------|
C  :--------------------------------|-------------------------------------|

C  :5-h7-0-0-0-0-7-0-5-0-0-8-0-0-7-0|5-h7-0-0-0-0-4-0-5-0-0-1-0-4-0-0|
A  :--------------------------------|--------------------------------|
F  :--------------------------------|--------------------------------|
C  :--------------------------------|--------------------------------|
G  :--------------------------------|--------------------------------|
C  :--------------------------------|--------------------------------|

C  :5-h7-0-0-0-0-7-0-5-0-0-8-0-0-7-0|8-h11-p8-p0-5-h8-p5-p0-4-h7-p4-p0*---|
A  :--------------------------------|-------------------------------------|
F  :--------------------------------|-------------------------------------|
C  :--------------------------------|-------------------------------------|
G  :--------------------------------|-------------------------------------|
C  :--------------------------------|-------------------------------------|

C  :5-h7-0-0-0-0-7-0-5-0-0-8-0-0-7-0|5-h7-0-0-0-0-4-0-5-0-0-1-0-4-0-0|
A  :--------------------------------|--------------------------------|
F  :--------------------------------|--------------------------------|
C  :--------------------------------|--------------------------------|
G  :--------------------------------|--------------------------------|
C  :--------------------------------|--------------------------------|

C  :5-h7-0-0-0-0-7-0-5-0-0-8-0-0-7-0|5-0-0-7-0-0-5-0-4-h5-p4-p0-1-h4-p1-p0|
A  :--------------------------------|-------------------------------------|
F  :--------------------------------|-------------------------------------|
C  :--------------------------------|-------------------------------------|
G  :--------------------------------|-------------------------------------|
C  :--------------------------------|-------------------------------------|

C  :5-h7-0-0-0-0-7-0-5-0-0-8-0-0-7-0|5-h7-0-0-0-0-4-0-5-0-0-1-0-4-0-0|
A  :--------------------------------|--------------------------------|
F  :--------------------------------|--------------------------------|
C  :--------------------------------|--------------------------------|
G  :--------------------------------|--------------------------------|
C  :--------------------------------|--------------------------------|

C  :5-h7-0-0-0-0-7-0-5-0-0-8-0-0-7-0|8-h11-p8-p0-5-h8*---------|
A  :--------------------------------|--------------------------|
F  :--------------------------------|--------------------------|
C  :--------------------------------|--------------------------|
G  :--------------------------------|--------------------------|
C  :--------------------------------|--------------------------|

C  :------------------------|----------7-8-7-0-11-0-7-8|
A  :------------------------|--------------------------|
F  :------------------------|--------------------------|
C  :0-0-0-0*0-0*0-0*-0-0-0-0|*0-0*0-0*-----------------|
G  :0-0-0-0*0-0*0-0*-0-0-0-0|*0-0*0-0*-----------------|
C  :0-0-0-0*0-0*0-0*-0-0-0-0|*0-0*0-0*-----------------|

C  :------------------------|----------4-5-4-0-1-4-1-0|
A  :------------------------|-------------------------|
F  :------------------------|-------------------------|
C  :0-0-0-0*0-0*0-0*-0-0-0-0|*0-0*0-0*----------------|
G  :0-0-0-0*0-0*0-0*-0-0-0-0|*0-0*0-0*----------------|
C  :0-0-0-0*0-0*0-0*-0-0-0-0|*0-0*0-0*----------------|

C  :------------------------|----------14-15-14-0-11-0-14-|
A  :------------------------|-----------------------------|
F  :------------------------|-----------------------------|
C  :0-0-0-0-0-0-0-0--0-0-0-0|-0-0-0-0*--------------------|
G  :0-0-0-0-0-0-0-0--0-0-0-0|-0-0-0-0*--------------------|
C  :0-0-0-0-0-0-0-0--0-0-0-0|-0-0-0-0*--------------------|

C  :------------------------|------------------|--------------------------|
A  :------------------------|------------------|--------------------------|
F  :------------------------|------------------|--------------------------|
C  :0-0-0-0*0-0*0-0*-0-0-0-0|*0-0*0-0*---------|4-0-7-0-4-0*---7-0-4-0-0-8|
G  :0-0-0-0*0-0*0-0*-0-0-0-0|*0-0*0-0*---------|--------------------------|
C  :0-0-0-0*0-0*0-0*-0-0-0-0|*0-0*0-0*---------|--------------------------|

C  :------------------------------|--------------------------|
A  :------------------------------|--------------------------|
F  :------------------------------|--------------------------|
C  :-0-7-0-5-0-7-0-4-0-8-0-7-0-5-0|4-0-7-0-4-0*---7-0-4-0-0-8|
G  :------------------------------|--------------------------|
C  :------------------------------|--------------------------|

C  :-------------------------------|--------------------------|
A  :-------------------------------|--------------------------|
F  :-------------------------------|--------------------------|
C  :-0-7-0-5-0-7-0-11-0-8-0-7-8-7-0|4-0-7-0-4-0*---7-0-4-0-0-8|
G  :-------------------------------|--------------------------|
C  :-------------------------------|--------------------------|

C  :------------------------------|--------------------------|
A  :------------------------------|--------------------------|
F  :------------------------------|--------------------------|
C  :-0-7-0-5-0-7-0-4-0-8-0-7-0-5-0|4-0-7-0-4-0*---7-0-4-0-0-8|
G  :------------------------------|--------------------------|
C  :------------------------------|--------------------------|

C  :---------------------------|------------------------------|
A  :---------------------------|15-3*3-10-3-11-3*3-7-3-4-7-4-3|
F  :---------------------------|------------------------------|
C  :-0-7-0-5-0-7-0-11-0-8-0*---|------------------------------|
G  :---------------------------|------------------------------|
C  :---------------------------|------------------------------|

C  :----------------------------------|------------------------------|
A  :15-3*3-10-3-11-3*3-7-3-11-14-11-10|15-3*3-10-3-11-3*3-7-3-4-7-4-3|
F  :----------------------------------|------------------------------|
C  :----------------------------------|------------------------------|
G  :----------------------------------|------------------------------|
C  :----------------------------------|------------------------------|

C  :----------------------------------|------------------------------|
A  :15-3*3-10-3-11-3*3-7-3-11-14-11-10|15-3*3-10-3-11-3*3-7-3-4-7-4-3|
F  :----------------------------------|------------------------------|
C  :----------------------------------|------------------------------|
G  :----------------------------------|------------------------------|
C  :----------------------------------|------------------------------|

C  :----------------------------------|------------------------------|
A  :15-3*3-10-3-11-3*3-7-3-11-14-11-10|15-3*3-10-3-11-3*3-7-3-4-7-4-3|
F  :----------------------------------|------------------------------|
C  :----------------------------------|------------------------------|
G  :----------------------------------|------------------------------|
C  :----------------------------------|------------------------------|

C  :--------------------------|----------------|-----------------|
A  :15-3*3-10-3-11-3*3-7-3*---|----------------|-----------------|
F  :--------------------------|----------------|-----------------|
C  :--------------------------|----------------|15---------------|
G  :--------------------------|----------------|-----------------|
C  :--------------------------|----------------|-----------------|

C  :----------------------|-----------------|------------------------|
A  :----------------------|-----------------|------------------------|
F  :15---14-14-12-10-12---|-----------------|------------------------|
C  :----------------------|15---------------|14-15-12-14-15-12-14-15-|
G  :----------------------|-----------------|------------------------|
C  :----------------------|-----------------|------------------------|

C  :-----------------|-------------------------|-----------------|
A  :-----------------|-----------18-17-22h-23h-|22---------------|
F  :-----------------|-------------------------|-----------------|
C  :14---------------|17---19-20---------------|-----------------|
G  :-----------------|-------------------------|-----------------|
C  :-----------------|-------------------------|-----------------|

C  :-------------------------|-----------------|----------------------|
A  :18---17-15-13-10b-11b-10-|-----------------|----------------------|
F  :-------------------------|-----------------|15---14-14-12-10-12---|
C  :-------------------------|15---------------|----------------------|
G  :-------------------------|-----------------|----------------------|
C  :-------------------------|-----------------|----------------------|

C  :-----------------|------------------------|-----------------|
A  :-----------------|------------------------|-----------------|
F  :-----------------|------------------------|-----------------|
C  :15---------------|14-15-12-14-15-12-14-15-|14---------------|
G  :-----------------|------------------------|-----------------|
C  :-----------------|------------------------|-----------------|

C  :-------------------------|-----------------|-------------------------|
A  :-----------18-17-22h-23h-|22---------------|18---17-15-13-10b-11b-10-|
F  :-------------------------|-----------------|-------------------------|
C  :17---19-20---------------|-----------------|-------------------------|
G  :-------------------------|-----------------|-------------------------|
C  :-------------------------|-----------------|-------------------------|

C  :-----------------|-----------------|---------------------------------|
A  :-----------------|-----------------|---------------------------------|
F  :15---------------|19---------------|---------------------------------|
C  :-----------------|-----------------|12-------------------------------|
G  :-----------------|---------7---3---|12-------------------------------|
C  :-----------------|-----------------|12-12-0-10-12-*--12-0-10-12-10-15|

C  :-------------------------------------|-----------------------------|
A  :-------------------------------------|-----------------------------|
F  :-------------------------------------|-----------------------------|
C  :--------------15-19-15---------------|-----------------------------|
G  :-----------------------17-15-17-15---|-----------------------------|
C  :--12-0-10-12-*---------------------15|--12-0-10-12-0-0-15-0-0-10---|

C  :------------------------------------|---------------------------------|
A  :------------------------------------|---------------------------------|
F  :------------------------------------|---------------------------------|
C  :---------------------------------12-|12-------------------------------|
G  :12-12-12-12-12-12-10-10-10-10-10-10-|12-------------------------------|
C  :15-15-15-15-15-15-14-14-14-14-14-10-|12-12-0-10-12-*--12-0-10-12-10-15|

C  :-------------------------------------|-----------------------------|
A  :-------------------------------------|-----------------------------|
F  :-------------------------------------|-----------------------------|
C  :--------------15-19-15---------------|-----------------------------|
G  :-----------------------17-15-17-15---|-----------------------------|
C  :--12-0-10-12-*---------------------15|--12-0-10-12-0-0-15-0-0-10---|

C  :------------------------------------|
A  :------------------------------------|
F  :------------------------------------|
C  :---------------------------------12-|
G  :12-12-12-12-12-12-10-10-10-10-10-10-|
C  :15-15-15-15-15-15-14-14-14-14-14-10-|

C  :12-0-12-0-10-12-10-12-15-12-10-12-14-10-10-12|
A  :---------------------------------------------|
F  :---------------------------------------------|
C  :---------------------------------------------|
G  :---------------------------------------------|
C  :---------------------------------------------|

C  :12-0-12-0-10-12-10-12-3-7-3-0-------3|
A  :------------------------------1-3-1--|
F  :-------------------------------------|
C  :-------------------------------------|
G  :-------------------------------------|
C  :-------------------------------------|

C  :--12-0-10-12-10-12-15-12-10-12-14-10-10-12|
A  :------------------------------------------|
F  :------------------------------------------|
C  :------------------------------------------|
G  :------------------------------------------|
C  :------------------------------------------|

C  :19-0-17-0-15-17-15-0-14-15-14-0-10-0-10-12|
A  :------------------------------------------|
F  :------------------------------------------|
C  :------------------------------------------|
G  :------------------------------------------|
C  :------------------------------------------|

C  :12-0-12-0-10-12-10-12-15-12-10-12-14-10-10-12|
A  :---------------------------------------------|
F  :---------------------------------------------|
C  :---------------------------------------------|
G  :---------------------------------------------|
C  :---------------------------------------------|

C  :12-0-12-0-10-12-10-12-3-7-3-0-------3|
A  :------------------------------1-3-1--|
F  :-------------------------------------|
C  :-------------------------------------|
G  :-------------------------------------|
C  :-------------------------------------|

C  :--12-0-10-12-10-12-15-12-10-12-14-10-10-12|
A  :------------------------------------------|
F  :------------------------------------------|
C  :------------------------------------------|
G  :------------------------------------------|
C  :------------------------------------------|

C  :19-0-17-0-15-17-15-0-14--15--10-|--------------------------|
A  :--------------------------------|--------------------------|
F  :--------------------------------|--------------------------|
C  :--------------------------------|4-0-7-0-4-0*---7-0-4-0-0-8|
G  :--------------------------------|--------------------------|
C  :--------------------------------|--------------------------|

C  :------------------------------|--------------------------|
A  :------------------------------|--------------------------|
F  :------------------------------|--------------------------|
C  :-0-7-0-5-0-7-0-4-0-8-0-7-0-5-0|4-0-7-0-4-0*---7-0-4-0-0-8|
G  :------------------------------|--------------------------|
C  :------------------------------|--------------------------|

C  :-------------------------------|--------------------------|
A  :-------------------------------|--------------------------|
F  :-------------------------------|--------------------------|
C  :-0-7-0-5-0-7-0-11-0-8-0-7-8-7-0|4-0-7-0-4-0*---7-0-4-0-0-8|
G  :-------------------------------|--------------------------|
C  :-------------------------------|--------------------------|

C  :------------------------------|--------------------------|
A  :------------------------------|--------------------------|
F  :------------------------------|--------------------------|
C  :-0-7-0-5-0-7-0-4-0-8-0-7-0-5-0|4-0-7-0-4-0*---7-0-4-0-0-8|
G  :------------------------------|--------------------------|
C  :------------------------------|--------------------------|

C  :-------------------------------|-----------------|----------------|
A  :-------------------------------|-----------------|----------------|
F  :-------------------------------|-----------------|----------------|
C  :-0-7-0-5-0-7-0-11-0-8-0-7-8-7-0|0-0--------------|--------*-------|
G  :-------------------------------|0-0--------------|--------*-------|
C  :-------------------------------|0-0--------------|--------*-------|

C  :--------------------|------------------|-------------------------------|
A  :--------------------|------------------|-------------------------------|
F  :--------------------|------------------|7-------------6-7-------------6|
C  :1-1-1-1-1-1-1-1-1-1-|--1-1-1-------1---|--7---------6-----7---------6--|
G  :0-0-0-0-0-0-0-0-0-0-|--0-0-0-------0---|----8-5-4-7---------8-5-4-7----|
C  :1-1-1-1-1-1-1-1-1-1-|--1-1-1-1-1-1-1-*-|-------------------------------|

C  :-----------------------------|--------------------|------------------|
A  :-----------------------------|--------------------|------------------|
F  :7-------------6-7------------|--------------------|------------------|
C  :--7---------6-----7-----0-0*-|1-1-1-1-1-1-1-1-1-1-|--1-1-1-------1---|
G  :----8-5-4-7---------8-5-6-6*-|0-0-0-0-0-0-0-0-0-0-|--0-0-0-------0---|
C  :-----------------------------|1-1-1-1-1-1-1-1-1-1-|--1-1-1-1-1-1-1-*-|

C  :-------------------------------|-----------------------------|
A  :-------------------------------|-----------------------------|
F  :7-------------6-7-------------6|7-------------6-7------------|
C  :--7---------6-----7---------6--|--7---------6-----7-----0-0*-|
G  :----8-5-4-7---------8-5-4-7----|----8-5-4-7---------8-5-6-6*-|
C  :-------------------------------|-----------------------------|

C  :--------------------|------------------|-------------------------------|
A  :--------------------|------------------|-------------------------------|
F  :--------------------|------------------|7-------------6-7-------------6|
C  :1-1-1-1-1-1-1-1-1-1-|--1-1-1-------1---|--7---------6-----7---------6--|
G  :0-0-0-0-0-0-0-0-0-0-|--0-0-0-------0---|----8-5-4-7---------8-5-4-7----|
C  :1-1-1-1-1-1-1-1-1-1-|--1-1-1-1-1-1-1-*-|-------------------------------|

C  :----------------|----------------|--------------------|
A  :----------------|----------------|--------------------|
F  :7-*-------------|----------------|--------------------|
C  :----7-*---------|----------------|0-0-0-0-0-0-0-0-0-0-|
G  :--------8-*-7-*-|5-------*-------|7-7-7-7-7-7-7-7-7-7-|
C  :----------------|----------------|0-0-0-0-0-0-0-0-0-0-|

C  :----------------------|--------------------|----------------------|
A  :----------------------|--------------------|----------------------|
F  :---------------------9|--------------------|---------------------9|
C  :--0-0-0------------9--|0-0-0-0-0-0-0-0-0-0-|--0-0-0------------9--|
G  :--7-7-7-------7-10----|7-7-7-7-7-7-7-7-7-7-|--7-7-7-------7-10----|
C  :--0-0-0-3-3-3---------|0-0-0-0-0-0-0-0-0-0-|--0-0-0-3-3-3---------|

C  :--------------------|----------------------|--------------------|
A  :--------------------|----------------------|--------------------|
F  :--------------------|---------------------9|--------------------|
C  :0-0-0-0-0-0-0-0-0-0-|--0-0-0------------9--|0-0-0-0-0-0-0-0-0-0-|
G  :7-7-7-7-7-7-7-7-7-7-|--7-7-7-------7-10----|7-7-7-7-7-7-7-7-7-7-|
C  :0-0-0-0-0-0-0-0-0-0-|--0-0-0-3-3-3---------|0-0-0-0-0-0-0-0-0-0-|

C  :----------------------|-----------------|
A  :----------------------|-----------------|
F  :---------------------9|-----------------|
C  :--0-0-0------------9--|0-0*-------------|
G  :--7-7-7-------7-10----|0-0*-------------|
C  :--0-0-0-3-3-3---------|0-0*-------------|

Rhythm Guitar (Jay Grahm)


D  :----------------|----------------|--------------------------------|
A  :----------------|----------------|--------------------------------|
F  :----------------|----------------|--------------------------------|
C  :----------------|----------------|4-h5-p4-p0-1-h4-p1-p0-0-0*-0-0*-|
G  :----------------|----------------|----------------------0-0*-0-0*-|
C  :----------------|----------------|----------------------0-0*-0-0*-|

D  :----------------|----------------|----------------|-----------------|
A  :----------------|----------------|----------------|-----------------|
F  :----------------|----------------|7---------------|9-------10-------|
C  :0---------------|----------------|0---------------|0--------0-------|
G  :0---------------|----------------|5---------------|7--------8-------|
C  :0---------------|----------------|0---------------|0--------0-------|

D  :----------------|----------------|----------------|----------------|
A  :----------------|----------------|----------------|----------------|
F  :----------------|----------------|----------------|----------------|
C  :8---------------|----------------|5---------------|----------------|
G  :8---------------|----------------|5---------------|----------------|
C  :8---------------|----------------|5---------------|----------------|

D  :--------------------------------|--------------------------------|
A  :--------------------------------|--------------------------------|
F  :--------------------------------|--------------------------------|
C  :5-h7-0-0-0-0-7-0-5-0-0-8-0-0-7-0|5-h7-0-0-0-0-4-0-5-0-0-1-0-4-0-0|
G  :--------------------------------|--------------------------------|
C  :--------------------------------|--------------------------------|

D  :--------------------------------|-------------------------------------|
A  :--------------------------------|-------------------------------------|
F  :--------------------------------|-------------------------------------|
C  :5-h7-0-0-0-0-7-0-5-0-0-8-0-0-7-0|5-0-0-7-0-0-5-0-4-h5-p4-p0-1-h4-p1-p0|
G  :--------------------------------|-------------------------------------|
C  :--------------------------------|-------------------------------------|

D  :--------------------------------|--------------------------------|
A  :--------------------------------|--------------------------------|
F  :--------------------------------|--------------------------------|
C  :5-h7-0-0-0-0-7-0-5-0-0-8-0-0-7-0|5-h7-0-0-0-0-4-0-5-0-0-1-0-4-0-0|
G  :--------------------------------|--------------------------------|
C  :--------------------------------|--------------------------------|

D  :--------------------------------|-------------------------------------|
A  :--------------------------------|-------------------------------------|
F  :--------------------------------|-------------------------------------|
C  :5-h7-0-0-0-0-7-0-5-0-0-8-0-0-7-0|8-h11-p8-p0-5-h8-p5-p0-4-h7-p4-p0*---|
G  :--------------------------------|-------------------------------------|
C  :--------------------------------|-------------------------------------|

D  :------------------------|------------------|------------------------|
A  :------------------------|------------------|------------------------|
F  :------------------------|------------------|------------------------|
C  :0-0-0-0*0-0*0-0*-0-0-0-0|*0-0*0-0*---------|0-0-0-0*0-0*0-0*-0-0-0-0|
G  :0-0-0-0*0-0*0-0*-0-0-0-0|*0-0*0-0*---------|0-0-0-0*0-0*0-0*-0-0-0-0|
C  :0-0-0-0*0-0*0-0*-0-0-0-0|*0-0*0-0*---------|0-0-0-0*0-0*0-0*-0-0-0-0|

D  :------------------|------------------------|------------------|
A  :------------------|------------------------|------------------|
F  :------------------|------------------------|------------------|
C  :*0-0*0-0*---------|0-0-0-0*0-0*0-0*-0-0-0-0|*0-0*0-0*---------|
G  :*0-0*0-0*---------|0-0-0-0*0-0*0-0*-0-0-0-0|*0-0*0-0*---------|
C  :*0-0*0-0*---------|0-0-0-0*0-0*0-0*-0-0-0-0|*0-0*0-0*---------|

D  :------------------------|------------------|------------------------|
A  :------------------------|------------------|------------------------|
F  :------------------------|------------------|------------------------|
C  :0-0-0-0*0-0*0-0*-0-0-0-0|*0-0*0-0*---------|0-0-0-0*0-0*0-0*-0-0-0-0|
G  :0-0-0-0*0-0*0-0*-0-0-0-0|*0-0*0-0*---------|0-0-0-0*0-0*0-0*-0-0-0-0|
C  :0-0-0-0*0-0*0-0*-0-0-0-0|*0-0*0-0*---------|0-0-0-0*0-0*0-0*-0-0-0-0|

D  :-------------------------------|------------------------|
A  :-------------------------------|------------------------|
F  :-------------------------------|------------------------|
C  :*0-0*0-0*-7-h8-p7-p0-11-p0-7-h8|0-0-0-0*0-0*0-0*-0-0-0-0|
G  :*0-0*0-0*----------------------|0-0-0-0*0-0*0-0*-0-0-0-0|
C  :*0-0*0-0*----------------------|0-0-0-0*0-0*0-0*-0-0-0-0|

D  :-------------------------------|------------------------|
A  :-------------------------------|------------------------|
F  :-------------------------------|------------------------|
C  :*0-0*0-0*-4-h5-p4-p0-1-h4-p1-p0|0-0-0-0-0-0-0-0--0-0-0-0|
G  :*0-0*0-0*----------------------|0-0-0-0-0-0-0-0--0-0-0-0|
C  :*0-0*0-0*----------------------|0-0-0-0-0-0-0-0--0-0-0-0|

D  :---------------------------------|------------------------|
A  :---------------------------------|------------------------|
F  :---------------------------------|------------------------|
C  :-0-0-0-0*-14-h15-p14-p0-11-p0-14-|0-0-0-0*0-0*0-0*-0-0-0-0|
G  :-0-0-0-0*------------------------|0-0-0-0*0-0*0-0*-0-0-0-0|
C  :-0-0-0-0*------------------------|0-0-0-0*0-0*0-0*-0-0-0-0|

D  :------------------|-----------------|-------------8---|
A  :------------------|10---------------|11-----8---------|
F  :------------------|-----------------|-----------------|
C  :*0-0*0-0*---------|-----------------|-----------------|
G  :*0-0*0-0*---------|-----------------|-----------------|
C  :*0-0*0-0*---------|-----------------|-----------------|

D  :------------------|--------------------|-----------------|
A  :10-----------10---|11----------11------|10---------------|
F  :------------------|-----10---9---------|-----------------|
C  :------------------|---------------11---|-----------------|
G  :------------------|--------------------|-----------------|
C  :------------------|--------------------|-----------------|

D  :-------------10-8-|------------------|--------------10----|
A  :11-----8----------|10-----------10---|11---------------10-|
F  :------------------|------------------|-----10---9---------|
C  :------------------|------------------|--------------------|
G  :------------------|------------------|--------------------|
C  :------------------|------------------|--------------------|

D  :--------------------|---------------------|--------------------|
A  :*-------------------|---------------------|--------------------|
F  :--------------------|---------------------|--------------------|
C  :0-0*----------------|---------------------|0-0*----------------|
G  :0-0*----------------|---------------------|0-0*----------------|
C  :0-0*-------0*0-0-0-0|*0-0*0-0*0-0*0*0-0-0*|0-0*-------0*0-0-0-0|

D  :-------------------|-----------------------------|---------------------|
A  :-------------------|-----------------------------|---------------------|
F  :-------------------|-----------------------------|---------------------|
C  :-------------------|0-0--------------------------|---------------------|
G  :-------------------|0-0--------------------------|---------------------|
C  :*0-0*0-0*0-0*0*----|0-0-----------------0-0-0-0-0|-0-0-0-0-0-0-0-0-0-0-|

D  :--------------------|-------------------|----------------|
A  :--------------------|-------------------|----------------|
F  :--------------------|-------------------|----------------|
C  :0-0*----------------|-------------------|----------------|
G  :0-0*----------------|-------------------|----------------|
C  :0-0*-------0*0-0-0-0|*0-0*0-0*0-0*0*----|----------------|

D  :----------------|----------------|----------------|----------------|
A  :----------------|----------------|----------------|----------------|
F  :----------------|----------------|----------------|----------------|
C  :8-8-8-8-8-8-8-8-|8-8-8-8-8-8-8-8-|3-3-3-3-3-3-3-3-|3-3-3-3-3-3-3-3-|
G  :8-8-8-8-8-8-8-8-|8-8-8-8-8-8-8-8-|3-3-3-3-3-3-3-3-|3-3-3-3-3-3-3-3-|
C  :8-8-8-8-8-8-8-8-|8-8-8-8-8-8-8-8-|3-3-3-3-3-3-3-3-|3-3-3-3-3-3-3-3-|

D  :----------------|----------------|----------------|--------------------|
A  :----------------|----------------|----------------|--------------------|
F  :----------------|----------------|----------------|9-9-9-9-10-10-10-10-|
C  :7-7-7-7-7-7-7-7-|7-7-7-7-7-8-7-5-|0-0-0-0-0-0-0-0-|0-0-0-0--0--0--0--0-|
G  :7-7-7-7-7-7-7-7-|7-7-7-7-7-8-7-5-|0-0-0-0-0-0-0-0-|7-7-7-7--8--8--8--8-|
C  :7-7-7-7-7-7-7-7-|7-7-7-7-7-8-7-5-|0-0-0-0-0-0-0-0-|0-0-0-0--0--0--0--0-|

D  :----------------|----------------|----------------|----------------|
A  :----------------|----------------|----------------|----------------|
F  :----------------|----------------|----------------|----------------|
C  :8-8-8-8-8-8-8-8-|8-8-8-8-8-8-8-8-|3-3-3-3-3-3-3-3-|3-3-3-3-3-3-3-3-|
G  :8-8-8-8-8-8-8-8-|8-8-8-8-8-8-8-8-|3-3-3-3-3-3-3-3-|3-3-3-3-3-3-3-3-|
C  :8-8-8-8-8-8-8-8-|8-8-8-8-8-8-8-8-|3-3-3-3-3-3-3-3-|3-3-3-3-3-3-3-3-|

D  :----------------|----------------|----------------|--------------------|
A  :----------------|----------------|----------------|--------------------|
F  :----------------|----------------|----------------|9-9-9-9-10-10-10-10-|
C  :7-7-7-7-7-7-7-7-|7-7-7-7-7-8-7-5-|0-0-0-0-0-0-0-0-|0-0-0-0--0--0--0--0-|
G  :7-7-7-7-7-7-7-7-|7-7-7-7-7-8-7-5-|0-0-0-0-0-0-0-0-|7-7-7-7--8--8--8--8-|
C  :7-7-7-7-7-7-7-7-|7-7-7-7-7-8-7-5-|0-0-0-0-0-0-0-0-|0-0-0-0--0--0--0--0-|

D  :----------------|-----------------|
A  :----------------|-----------------|
F  :----------------|-----------------|
C  :8---------------|8----------------|
G  :8---------------|8-------7--------|
C  :8---------------|8-----------10---|

D  :--------------------------------------|
A  :--------------------------------------|
F  :--------------------------------------|
C  :12------------------------------------|
G  :12------------------------------------|
C  :12-12-h0-10-h12-*--12-p0-10-h12-p10-15|

D  :-------------------------------------------|
A  :-------------------------------------------|
F  :-------------------------------------------|
C  :----------------12-h15-p12-----------------|
G  :---------------------------13-12-h13-p12---|
C  :--12-p0-10-h12-*-------------------------15|

D  :---------------------------------|------------------------------------|
A  :---------------------------------|------------------------------------|
F  :---------------------------------|------------------------------------|
C  :---------------------------------|---------------------------------12-|
G  :---------------------------------|12-12-12-12-12-12-10-10-10-10-10-10-|
C  :--12-p0-10-h12-0-0-h15-0-0-h10---|15-15-15-15-15-15-14-14-14-14-14-10-|

D  :--------------------------------------|
A  :--------------------------------------|
F  :--------------------------------------|
C  :12------------------------------------|
G  :12------------------------------------|
C  :12-12-h0-10-h12-*--12-p0-10-h12-p10-15|

D  :-------------------------------------------|
A  :-------------------------------------------|
F  :-------------------------------------------|
C  :----------------12-h15-p12-----------------|
G  :---------------------------13-12-h13-p12---|
C  :--12-p0-10-h12-*-------------------------15|

D  :---------------------------------|------------------------------------|
A  :---------------------------------|------------------------------------|
F  :---------------------------------|------------------------------------|
C  :---------------------------------|---------------------------------12-|
G  :---------------------------------|12-12-12-12-12-12-10-10-10-10-10-10-|
C  :--12-p0-10-h12-0-0-h15-0-0-h10---|15-15-15-15-15-15-14-14-14-14-14-10-|

D  :--------------------------------------|
A  :--------------------------------------|
F  :--------------------------------------|
C  :12------------------------------------|
G  :12------------------------------------|
C  :12-12-h0-10-h12-*--12-p0-10-h12-p10-15|

D  :-------------------------------------------|
A  :-------------------------------------------|
F  :-------------------------------------------|
C  :----------------12-h15-p12-----------------|
G  :---------------------------13-12-h13-p12---|
C  :--12-p0-10-h12-*-------------------------15|

D  :---------------------------------|------------------------------------|
A  :---------------------------------|------------------------------------|
F  :---------------------------------|------------------------------------|
C  :---------------------------------|---------------------------------12-|
G  :---------------------------------|12-12-12-12-12-12-10-10-10-10-10-10-|
C  :--12-p0-10-h12-0-0-h15-0-0-h10---|15-15-15-15-15-15-14-14-14-14-14-10-|

D  :--------------------------------------|
A  :--------------------------------------|
F  :--------------------------------------|
C  :12------------------------------------|
G  :12------------------------------------|
C  :12-12-h0-10-h12-*--12-p0-10-h12-p10-15|

D  :-------------------------------------------|
A  :-------------------------------------------|
F  :-------------------------------------------|
C  :----------------12-h15-p12-----------------|
G  :---------------------------13-12-h13-p12---|
C  :--12-p0-10-h12-*-------------------------15|

D  :---------------------------------|------------------------------------|
A  :---------------------------------|------------------------------------|
F  :---------------------------------|------------------------------------|
C  :---------------------------------|---------------------------------12-|
G  :---------------------------------|12-12-12-12-12-12-10-10-10-10-10-10-|
C  :--12-p0-10-h12-0-0-h15-0-0-h10---|15-15-15-15-15-15-14-14-14-14-14-10-|

D  :-----------------|-------------8---|------------------|
A  :10---------------|11-----8---------|10-----------10---|
F  :-----------------|-----------------|------------------|
C  :-----------------|-----------------|------------------|
G  :-----------------|-----------------|------------------|
C  :-----------------|-----------------|------------------|

D  :--------------------|-----------------|-------------10-8-|
A  :11----------11------|10---------------|11-----8----------|
F  :-----10---9---------|-----------------|------------------|
C  :---------------11---|-----------------|------------------|
G  :--------------------|-----------------|------------------|
C  :--------------------|-----------------|------------------|

D  :------------------|--------------10----|-----------------|
A  :10-----------10---|11---------------10-|-----------------|
F  :------------------|-----10---9---------|-----------------|
C  :------------------|--------------------|0-0--------------|
G  :------------------|--------------------|0-0--------------|
C  :------------------|--------------------|0-0--------------|

D  :----------------|--------------------|------------------|
A  :----------------|--------------------|------------------|
F  :----------------|--------------------|------------------|
C  :--------*-------|1-1-1-1-1-1-1-1-1-1-|--1-1-1-------1-*-|
G  :--------*-------|0-0-0-0-0-0-0-0-0-0-|--0-0-0-------0-*-|
C  :--------*-------|1-1-1-1-1-1-1-1-1-1-|--1-1-1-1-1-1-1-*-|

D  :----------------|-------------------|--------------------|
A  :----------------|-------------------|--------------------|
F  :----------------|-------------------|--------------------|
C  :----------------|-------------------|1-1-1-1-1-1-1-1-1-1-|
G  :----------------|------------12-12*-|0-0-0-0-0-0-0-0-0-0-|
C  :----------------|------------13-13*-|1-1-1-1-1-1-1-1-1-1-|

D  :------------------|----------------|-------------------|
A  :------------------|----------------|-------------------|
F  :------------------|----------------|-------------------|
C  :--1-1-1-------1-*-|----------------|-------------------|
G  :--0-0-0-------0-*-|----------------|------------12-12*-|
C  :--1-1-1-1-1-1-1-*-|----------------|------------13-13*-|

D  :--------------------|------------------|----------------|
A  :--------------------|------------------|----------------|
F  :--------------------|------------------|----------------|
C  :1-1-1-1-1-1-1-1-1-1-|--1-1-1-------1-*-|----------------|
G  :0-0-0-0-0-0-0-0-0-0-|--0-0-0-------0-*-|----------------|
C  :1-1-1-1-1-1-1-1-1-1-|--1-1-1-1-1-1-1-*-|----------------|

D  :----------------|----------------|--------------------|
A  :----------------|----------------|--------------------|
F  :----------------|----------------|--------------------|
C  :----------------|----------------|0-0-0-0-0-0-0-0-0-0-|
G  :----------------|----------------|4-4-4-4-4-4-4-4-4-4-|
C  :----------------|----------------|0-0-0-0-0-0-0-0-0-0-|

D  :---------------------|--------------------|---------------------|
A  :---------------------|--------------------|---------------------|
F  :--------------------6|--------------------|--------------------6|
C  :--0-0-0-----------6--|0-0-0-0-0-0-0-0-0-0-|--0-0-0-----------6--|
G  :--4-4-4-------4-7----|4-4-4-4-4-4-4-4-4-4-|--4-4-4-------4-7----|
C  :--0-0-0-0-0-0--------|0-0-0-0-0-0-0-0-0-0-|--0-0-0-0-0-0--------|

D  :--------------------|---------------------|--------------------|
A  :--------------------|---------------------|--------------------|
F  :--------------------|--------------------6|--------------------|
C  :0-0-0-0-0-0-0-0-0-0-|--0-0-0-----------6--|0-0-0-0-0-0-0-0-0-0-|
G  :4-4-4-4-4-4-4-4-4-4-|--4-4-4-------4-7----|4-4-4-4-4-4-4-4-4-4-|
C  :0-0-0-0-0-0-0-0-0-0-|--0-0-0-0-0-0--------|0-0-0-0-0-0-0-0-0-0-|

D  :---------------------|-----------------|
A  :---------------------|-----------------|
F  :--------------------6|-----------------|
C  :--0-0-0-----------6--|0-0*-------------|
G  :--4-4-4-------4-7----|0-0*-------------|
C  :--0-0-0-0-0-0--------|0-0*-------------|

************************************

| /   slide up
| \   slide down
| h   hammer-on
| p   pull-off
| ~   vibrato
| +   harmonic
| x   Mute note
| b   Bend
| pb  Pre-bend
| br  Bend release
| pbr Pre-bend release
| brb Bend release bend

************************************





Comments


Popular My Heart To Fear tabs & chords
The War Bass Tabs
The Witching Hour Bass Tabs
You Be Trollin While I Be Rollin Bass Tabs
The Witching Hour Tabs


Song lyrics



↑ Back to top | Tablatures and chords are parodies/interpretations of the original songs. You may use it for private study, scholarship, research or language learning purposes only
© 2014 AZChords.com Contact us | Privacy policy | DMCA | Add/correct tabs | Request tabs | Top 50 tabs