>
 >
The Witching Hour

The Witching Hour Guitar Tabs

My Heart To Fear - The Witching Hour chords, tabs, tablatures, lyrics

Guitar lessons | Add/correct | Request | Top 50 tabs Artists:  A B C D E F G H I J K L M N O P Q R S T U V W X Y Z 0-9

The Witching Hour Guitar Tabs – My Heart To Fear

CD, Sheet music, Poster

Do you like The Witching Hour? Share with your friends now
Bass TabsTabs
-------------------------------------------------------------------------------
-------------------------------------------------------------------------------

Tuning: Lead Guitar(CGCFAC); Rhythm Guitar(CGCFAD)

Melody of parts is off at times, but all the notes are here.

LEAD GUITAR(DALE UPRIGHT)

C  :----------------|----------------|------------------------|
A  :----------------|----------------|------------------------|
F  :----------------|----------------|------------------------|
C  :----------------|----------------|------------------------|
G  :----------------|----------------|------------------------|
C  :----------------|----------------|0-0-0-0-0-0-0-0*-0-0-0-0|

C  :-----------------------|------------------------|--------------------|
A  :-----------------------|------------------------|--------------------|
F  :--------------9-10-9---|------------------------|--------------12-10-|
C  :------------0--------10|------------------------|------------0-------|
G  :-----------------------|------------------------|--------------------|
C  :-0-0-0-0*--------------|0-0-0-0-0-0-0-0*-0-0-0-0|-0-0-0-0*-----------|

C  :------------------------|-----------------------|
A  :------------------------|-----------------------|
F  :------------------------|--------------9-10-9---|
C  :------------------------|------------0--------10|
G  :------------------------|-----------------------|
C  :0-0-0-0-0-0-0-0*-0-0-0-0|-0-0-0-0*--------------|

C  :------------------------|------------------|
A  :------------------------|------------------|
F  :------------------------|------------------|
C  :------------------------|------------0*----|
G  :------------------------|------------0*4---|
C  :0-0-0-0-0-0-0-0*-0-0-0-0|-0-0-0-0*---0*----|

C  :12-0-10-12-17-19-17-14-15-0-10-12-14-15-14-10|
A  :---------------------------------------------|
F  :---------------------------------------------|
C  :---------------------------------------------|
G  :---------------------------------------------|
C  :---------------------------------------------|

C  :12-0-10-12-17-19-17-14-15-0-10-12-15-10-|
A  :----------------------------------------|
F  :----------------------------------------|
C  :----------------------------------------|
G  :----------------------------------------|
C  :----------------------------------------|

C  :12-0-10-12-17-19-17-14-15-0-10-12-14-15-14-10|
A  :---------------------------------------------|
F  :---------------------------------------------|
C  :---------------------------------------------|
G  :---------------------------------------------|
C  :---------------------------------------------|

C  :12-0-10-12-17-19-17-14-15-0-10-12-15-10-|
A  :----------------------------------------|
F  :----------------------------------------|
C  :----------------------------------------|
G  :----------------------------------------|
C  :----------------------------------------|

C  :12-0-10-12-17-19-17-14-15-0-10-12-14-15-14-10--|
A  :------------------------------------------------|
F  :------------------------------------------------|
C  :------------------------------------------------|
G  :------------------------------------------------|
C  :------------------------------------------------|

C  :12-0-10-12-17-19-17-14-15-0-10-12-15-10-|
A  :----------------------------------------|
F  :----------------------------------------|
C  :----------------------------------------|
G  :----------------------------------------|
C  :----------------------------------------|

C  :12-0-10-12-17-19-17-14-15-0-10-12-14-15-14-10|
A  :---------------------------------------------|
F  :---------------------------------------------|
C  :---------------------------------------------|
G  :---------------------------------------------|
C  :---------------------------------------------|

C  :12-0-10-12-17-19-17-14-15-0-10-12-15-10-|---------------------|
A  :----------------------------------------|---------------------|
F  :----------------------------------------|---------------------|
C  :----------------------------------------|---------8*10*8*-----|
G  :----------------------------------------|8-10*11*--------11*7-|
C  :----------------------------------------|---------------------|

C  :----------------|12-0-0-7-0-0-8-0-11-0-8-0-7-8-7-0|
A  :----------------|---------------------------------|
F  :----------------|---------------------------------|
C  :----------------|---------------------------------|
G  :------------*---|---------------------------------|
C  :----------------|---------------------------------|

C  :5-0-0-7-0-0-5-0-4-0-5-0-4-0-5-0|1-0-0-4-0-0-1-0-4-0-5-0-4-0-5-0|
A  :-------------------------------|-------------------------------|
F  :-------------------------------|-------------------------------|
C  :-------------------------------|-------------------------------|
G  :-------------------------------|-------------------------------|
C  :-------------------------------|-------------------------------|

C  :7-0-0-5-0-0-7-0-8-0-7-0-11-0-8-0|12-0-0-7-0-0-8-0-11-0-8-0-7-8-7-0|
A  :--------------------------------|---------------------------------|
F  :--------------------------------|---------------------------------|
C  :--------------------------------|---------------------------------|
G  :--------------------------------|---------------------------------|
C  :--------------------------------|---------------------------------|

C  :5-0-0-7-0-0-5-0-4-0-5-0-4-0-5-0|1-0-0-4-0-0-1-0-4-0-5-0-4-0-5-0|
A  :-------------------------------|-------------------------------|
F  :-------------------------------|-------------------------------|
C  :-------------------------------|-------------------------------|
G  :-------------------------------|-------------------------------|
C  :-------------------------------|-------------------------------|

C  :7-0-0-5-0-0-7-0-8-0-7-0-11-0-8-0|---------------------------|
A  :--------------------------------|----------------------------|
F  :--------------------------------|----------------------------|
C  :--------------------------------|0-0-0-0-0-0*-0-0*-0-0-0-0---|
G  :--------------------------------|0-0-0-0-0-0*-0-0*-0-0-0-0---|
C  :--------------------------------|0-0-0-0-0-0*-0-0*-0-0-0-0---|

C  :-------------------|------------------------|---------------------5*-|
A  :-------------------|------------------------|-------------------5----|
F  :-------------------|------------------------|-----------------6------|
C  :*0-0-0-0*0*--------|0-0-0-0-0-0*-----0-0-0-0|*0-0-0-0*0*----5--------|
G  :*0-0-0-0*0*--------|0-0-0-0-0-0*-----0-0-0-0|*0-0-0-0*0*4-7----------|
C  :*0-0-0-0*0*--------|0-0-0-0-0-0*-----0-0-0-0|*0-0-0-0*0*-------------|

C  :------------------------|-----------------------|
A  :------------------------|-----------------------|
F  :------------------------|-----------------------|
C  :1-1-1-1-1---0-0*-0-0-0-0|*0-0-0-0*0*------------|
G  :0-0-0-0-0---0-0*-0-0-0-0|*0-0-0-0*0*----5-----6-|
C  :1-1-1-1-1---0-0*-0-0-0-0|*0-0-0-0*0*0-0---0-0---|

C  :----------------------------|-------------------|----------------|
A  :----------------------------|-------------------|----------------|
F  :----------------------------|-------------------|----------------|
C  :0-0-0-0-0-0----------0-0-0-0|*0-0-0-0*0*--------|----------------|
G  :0-0-0-0-0-0-6-5-4-3*-0-0-0-0|*0-0-0-0*0*--------|----------------|
C  :0-0-0-0-0-0----------0-0-0-0|*0-0-0-0*0*--------|----------------|

C  :----------------|--------------------------|------------------------|
A  :----------------|--------------------------|------------------------|
F  :----------------|--------------------------|------------------------|
C  :0-*-----0-*-0-*-|0-0-0-0-0-0-0-0-0-0-0-0-0-|0-0-0-0-0-0-0-0-0-0-0*--|
G  :0-*-----7-*-8-*-|7-7-7-7-7-7-7-7-7-7-7-7-7-|7-7-7-7-7-7-7-7-7-7-7*--|
C  :0-*-----0-*-0-*-|0-0-0-0-0-0-0-0-0-0-0-0-0-|0-0-0-0-0-0-0-0-0-0-0*--|

C  :--------------------------|---------------------|
A  :--------------------------|---------------------|
F  :--------------------------|---------------------|
C  :0-0-0-0-0-0-0-0-0-0-0-0-0-|0-0-0-0-0-0-0*-------|
G  :7-7-7-7-7-7-7-7-7-7-7-7-7-|7-7-7-7-7-7-7*-------|
C  :0-0-0-0-0-0-0-0-0-0-0-0-0-|0-0-0-0-0-0-0*-------|

C  :------------11-12-14-12-11----------|12-11-------------11--------------|
A  :--------6-9----------------9-6------|------9-6------------9-6----------|
F  :------7------------------------7----|----------7--------------7--------|
C  :----6----------------------------6--|------------6--------------6------|
G  :5-8--------------------------------8|--------------8-5------------8-7-5|
C  :------------------------------------|----------------------------------|

C  :------------11-12-14-12-11----------|12-11-------------15--------------|
A  :--------6-9----------------9-6------|------9-6------------9-6----------|
F  :------7------------------------7----|----------7--------------7--------|
C  :----6----------------------------6--|------------6--------------6------|
G  :5-8--------------------------------8|--------------8-5------------8-7-5|
C  :------------------------------------|----------------------------------|

C  :--------------------------|-----------------------------|
A  :--------------------------|------------------------------|
F  :--------------------------|--------------------9-10-9----|
C  :--------------------------|------------------------------|
G  :--------------------5-8-5*|------------------------------|
C  :0-0-0-0*0-0-0-0-0-0*------|0-0-0-0*0-0-0-0-0-0*----------|

C  :--------------------------|------------------------|
A  :--------------------------|------------------------|
F  :--------------------------|------------------------|
C  :--------------------------|------------------------|
G  :--------------------5-7-8*|------------8-7-5-7-5-4-|
C  :0-0-0-0*0-0-0-0-0-0*------|0-0-0-0*0-0-------------|

C  :--------------------------|---------------------------|
A  :--------------------------|---------------------------|
F  :--------------------------|--------------------9-10-9*|
C  :--------------------------|---------------------------|
G  :--------------------5-8-5*|---------------------------|
C  :0-0-0-0*0-0-0-0-0-0*------|0-0-0-0*0-0-0-0-0-0*-------|

C  :--------------------------|------------------------|----------------|
A  :--------------------------|------------------------|----------------|
F  :--------------------------|------------------------|----------------|
C  :--------------------------|------------------------|0*--------------|
G  :--------------------5-7-8*|------------8-7-5-7-5-4-|0*--------------|
C  :0-0-0-0*0-0-0-0-0-0*------|0-0-0-0*0-0-------------|0*------0*-0*-0*|

C  :--------------------|----------------|----------------|----------------|
A  :--------------------|----------------|----------------|----------------|
F  :--------------------|----------------|----------------|----------------|
C  :--------1-1-1-1-1-1-|0*--------------|----------------|0*--------------|
G  :--------0-0-0-0-0-0-|0*--------------|----------------|0*--------------|
C  :0*------1-1-1-1-1-1-|0*------0*-0*-0*|0*--------------|0*---------0*---|

C  :--------------------|----------------|----------------|
A  :--------------------|----------------|----------------|
F  :--------------------|----------------|----------------|
C  :--------1-1-1-1-1-1-|0*--------------|----------------|
G  :--------0-0-0-0-0-0-|0*--------------|----------------|
C  :0*------1-1-1-1-1-1-|0*------0*-0*-0*|----------------|

C  :----------------------------------|---------------------------------|
A  :----------------------------------|---------------------------------|
F  :----7-9---10-9-12-9-7---12-9-7----|----7-9---10-9-12-9-7---9-7------|
C  :--------7-------------7--------7--|--------7-------------7-----8-7--|
G  :5-8------------------------------8|5-8-----------------------------7|
C  :----------------------------------|---------------------------------|

C  :----------------------------------|-----------------------|
A  :----------------------------------|-----------------------|
F  :----7-9---10-9-12-9-7---12-9-7----|----7-9---9-9-7-9-10---|
C  :--------7-------------7--------7--|--------7------------7-|
G  :5-8------------------------------8|5-8--------------------|
C  :----------------------------------|-----------------------|

C  :----------------------|----------------------|----------------------|
A  :----------------------|----------------------|-----------------------|
F  :----9---10-9-----10---|----9-10-12-9-----7---|--7-9-10---10---9------|
C  :------7--------7----7-|----------------7---7-|---------7----7---7----|
G  :5-8-------------------|5-8-------------------|5----------------------|
C  :----------------------|----------------------|-----------------------|

C  :----------------------|----------------------|----------------------|
A  :----------------------|----------------------|----------------------|
F  :----9-10-12-9-----7---|----9---10-9-----10---|----9-10-12-9-----7---|
C  :----------------7---7-|------7--------7----7-|----------------7---7-|
G  :5-8-------------------|5-8-------------------|5-8-------------------|
C  :----------------------|----------------------|----------------------|

C  :----------------------------------|-----------------------------------|
A  :----------------------------------|-----------------------------------|
F  :----7-9---10-9-12-9-7---12-9-7----|----7-9---10-9-12-9-7---9-7-9-10-12|
C  :--------7-------------7--------7--|--------7-------------7------------|
G  :5-8------------------------------8|5-8--------------------------------|
C  :----------------------------------|-----------------------------------|

C  :-----------------|-----------------|------------------|----------------|
A  :-----------------|-----------------|------------------|----------------|
F  :14---------------|12---------------|10-------------10-|9-------5-------|
C  :-----------------|-----------------|------------------|----------------|
G  :-----------------|-----------------|------------------|----------------|
C  :-----------------|-----------------|------------------|----------------|

C  :------------------------|------------------------|
A  :------------------------|------------------------|
F  :14-14-14-14-14-14-14-14-|12-12-12-12-12-12-12-12-|
C  :-0--0--0--0--0--0--0--0-|-0--0--0--0--0--0--0--0-|
G  :------------------------|------------------------|
C  :------------------------|------------------------|

C  :------------------------|----------------|------------------------|
A  :------------------------|----------------|------------------------|
F  :10-10-10-10-10-10-10-10-|9-9-9-9-5-5-5-5-|14-14-14-14-14-14-14-14-|
C  :-0--0--0--0--0--0--0--0-|0-0-0-0-0-0-0-0-|15-15-15-15-15-15-15-15-|
G  :------------------------|----------------|------------------------|
C  :------------------------|----------------|------------------------|

C  :------------------------|------------------------|---------------------|
A  :------------------------|------------------------|---------------------|
F  :17-17-17-17-17-17-17-17-|10-10-10-10-10-10-10-10-|9-9*9*-9*5-5-5*5-5-5*|
C  :15-15-15-15-15-15-15-15-|-*----------------------|0-0*0*-0*0-0-0*0-0-0*|
G  :------------------------|------------------------|---------------------|
C  :------------------------|------------------------|---------------------|

C  :----------------|----------------|--------------------|
A  :----------------|----------------|--------------------|
F  :----------------|----------------|--------------------|
C  :----------------|----------------|--------------------|
G  :----------------|----------------|--------------------|
C  :----------------|----------------|0-0------0-0-0-0-0-0|

C  :---------------------|--------------------|-----------------------|
A  :---------------------|--------------------|------------------------|
F  :---------------------|--------------------|------------------------|
C  :---------1-1-1-1-1-1-|--------------------|---------1-1-1-1-1-1----|
G  :---------0-0-0-0-0-0-|--------------------|---------0-0-0-0-0-0----|
C  :0-0------1-1-1-1-1-1-|0-0------0-0-0-0-0-0|0-0------1-1-1-1-1-1----|

C  :--------------------|---------------------|--------------------|
A  :--------------------|---------------------|--------------------|
F  :--------------------|---------------------|--------------------|
C  :--------------------|---------1-1-1-1-1-1-|--------------------|
G  :--------------------|---------0-0-0-0-0-0-|--------------------|
C  :0-0------0-0-0-0-0-0|0-0------1-1-1-1-1-1-|0-0------0-0-0-0-0-0|

C  :---------------------|--------------------|---------------------|
A  :---------------------|--------------------|---------------------|
F  :---------------------|--------------------|---------------------|
C  :---------1-1-1-1-1-1-|0*----0-0-0*0-0-0*--|--0-0-0*0*-----------|
G  :---------0-0-0-0-0-0-|4*----4-4-4*4-4-4*--|--4-4-4*4*13*-11*-10*|
C  :0-0------1-1-1-1-1-1-|0*----0-0-0*0-0-0*--|--0-0-0*0*-----------|

C  :--------------------|------------------|--------------------|
A  :--------------------|------------------|--------------------|
F  :--------------------|------------------|--------------------|
C  :0*----0-0-0*0-0-0*--|--0-0-0*0*1--1--1-|0*----0-0-0*0-0-0*--|
G  :4*----4-4-4*4-4-4*--|--4-4-4*4*0--0--0-|4*----4-4-4*4-4-4*--|
C  :0*----0-0-0*0-0-0*--|--0-0-0*0*1--1--1-|0*----0-0-0*0-0-0*--|

C  :---------------------|--------------------|----------------|
A  :---------------------|--------------------|----------------|
F  :---------------------|--------------------|----------------|
C  :--0-0-0*0*-----------|0*----0-0-0*0-0-0*--|----------------|
G  :--4-4-4*4*13*-11*-10*|4*----4-4-4*4-4-4*--|----------------|
C  :--0-0-0*0*-----------|0*----0-0-0*0-0-0*--|----------------|

C  :--------------------|---------------------|--------------------|
A  :--------------------|---------------------|--------------------|
F  :--------------------|---------------------|--------------------|
C  :0-----0-0-0-0-0-0---|--0-0-0-0--0---0---0-|0-----0-0-0-0-0-0---|
G  :0-----0-0-0-0-0-0---|--0-0-0-0-13--11--10-|0-----0-0-0-0-0-0---|
C  :0-----0-0-0-0-0-0---|--0-0-0-0--0---0---0-|0-----0-0-0-0-0-0---|

C  :------------------|--------------------|---------------------|
A  :------------------|--------------------|---------------------|
F  :------------------|--------------------|---------------------|
C  :--0-0-0-0-1--1--1-|0-----0-0-0-0-0-0---|--0-0-0-0--0---0---0-|
G  :--0-0-0-0-0--0--0-|0-----0-0-0-0-0-0---|--0-0-0-0-13--11--10-|
C  :--0-0-0-0-1--1--1-|0-----0-0-0-0-0-0---|--0-0-0-0--0---0---0-|

C  :--------------------|------------------|----------------|
A  :--------------------|------------------|----------------|
F  :--------------------|------------------|7-7-7-7-7-7-7-7-|
C  :0-----0-0-0-0-0-0---|--0-0-0-0-1--1--1-|0-0-0-0-0-0-0-0-|
G  :0-----0-0-0-0-0-0---|--0-0-0-0-0--0--0-|----------------|
C  :0-----0-0-0-0-0-0---|--0-0-0-0-1--1--1-|----------------|

C  :--------------------|------------------------|--------------------------|
A  :--------------------|------------------------|---------------------------|
F  :8-8-8-8-17-17-17-17-|15-15-15-15-15-15-15-15-|14-14-14-14-18-18-18-18----|
C  :0-0-0-0--0--0--0--0-|-0--0--0--0--0--0--0--0-|-0--0--0--0--0--0--0--0----|
G  :--------------------|------------------------|---------------------------|
C  :--------------------|------------------------|---------------------------|

C  :----------------|--------------------|------------------------|
A  :----------------|--------------------|------------------------|
F  :7-7-7-7-7-7-7-7-|8-8-8-8-17-17-17-17-|15-15-15-15-15-15-15-15-|
C  :0-0-0-0-0-0-0-0-|0-0-0-0--0--0--0--0-|-0--0--0--0--0--0--0--0-|
G  :----------------|--------------------|------------------------|
C  :----------------|--------------------|------------------------|

C  :----------------------|----------------|--------------------|
A  :----------------------|----------------|--------------------|
F  :14-14-14-14-18-*-18-*-|7-7-7-7-7-7-7-7-|8-8-8-8-17-17-17-17-|
C  :-0--0--0--0--0-*--0-*-|0-0-0-0-0-0-0-0-|0-0-0-0--0--0--0--0-|
G  :----------------------|----------------|--------------------|
C  :----------------------|----------------|--------------------|

C  :------------------------|------------------------|----------------|
A  :------------------------|------------------------|----------------|
F  :15-15-15-15-15-15-15-15-|14-14-14-14-18-18-18-18-|7-7-7-7-7-7-7-7-|
C  :-0--0--0--0--0--0--0--0-|-0--0--0--0--0--0--0--0-|0-0-0-0-0-0-0-0-|
G  :------------------------|------------------------|----------------|
C  :------------------------|------------------------|----------------|

C  :--------------------|------------------------|------------------------|
A  :--------------------|------------------------|------------------------|
F  :8-8-8-8-17-17-17-17-|15-15-15-15-15-15-15-15-|14-14-14-14-18-18-18-18-|
C  :0-0-0-0--0--0--0--0-|-0--0--0--0--0--0--0--0-|-0--0--0--0--0--0--0--0-|
G  :--------------------|------------------------|------------------------|
C  :--------------------|------------------------|------------------------|

C  :----------------|--------------------|------------------------|
A  :----------------|--------------------|------------------------|
F  :7-7-7-7-7-7-7-7-|8-8-8-8-17-17-17-17-|15-15-15-15-15-15-15-15-|
C  :0-0-0-0-0-0-0-0-|0-0-0-0--0--0--0--0-|-0--0--0--0--0--0--0--0-|
G  :----------------|--------------------|------------------------|
C  :----------------|--------------------|------------------------|

C  :------------------------|----------------|--------------------|
A  :------------------------|----------------|--------------------|
F  :14-14-14-14-18-18-18-18-|7-7-7-7-7-7-7-7-|8-8-8-8-17-17-17-17-|
C  :-0--0--0--0--0--0--0--0-|0-0-0-0-0-0-0-0-|0-0-0-0--0--0--0--0-|
G  :------------------------|----------------|--------------------|
C  :------------------------|----------------|--------------------|

C  :------------------------|------------------------|----------------|
A  :------------------------|------------------------|----------------|
F  :15-15-15-15-15-15-15-15-|14-14-14-14-18-18-18-18-|----------------|
C  :-0--0--0--0--0--0--0--0-|-0--0--0--0--0--0--0--0-|0-0-*-----------|
G  :------------------------|------------------------|0-0-*-----------|
C  :------------------------|------------------------|0-0-*-----------|

C  :----------------|----------------|----------------|------------------|
A  :----------------|----------------|----------------|-------------------|
F  :----------------|----------------|----------------|-------------------|
C  :0-0-*---0-0-*---|0-0-*-----------|0-0-*---0-0-*---|0-0-*--------------|
G  :0-0-*---0-0-*---|0-0-*-----------|0-0-*---0-0-*---|0-0-*--------------|
C  :0-0-*---0-0-*---|0-0-*-----------|0-0-*---0-0-*---|0-0-*--------------|

C  :----------------|----------------|----------------|----------------|
A  :----------------|----------------|----------------|----------------|
F  :----------------|----------------|----------------|----------------|
C  :0-0-*---0-0-*---|0-0-*-----------|0-0-*---0-0-*---|0-0-------------|
G  :0-0-*---0-0-*---|0-0-*-----------|0-0-*---0-0-*---|0-0-------------|
C  :0-0-*---0-0-*---|0-0-*-----------|0-0-*---0-0-*---|0-0-------------|

C  :----------------|
A  :----------------|
F  :----------------|
C  :---------------*|
G  :---------------*|
C  :---------------*|


RHYTHM GUITAR(JAY GRAHM)

D  :----------------|----------------|------------------------|
A  :----------------|----------------|------------------------|
F  :----------------|----------------|------------------------|
C  :----------------|----------------|------------------------|
G  :----------------|----------------|------------------------|
C  :----------------|----------------|0-0-0-0-0-0-0-0*-0-0-0-0|

D  :---------------------|------------------------|------------------|
A  :---------------------|------------------------|------------------|
F  :---------------------|------------------------|------------------|
C  :------------0-2-3-2--|------------------------|------------0-5-3-|
G  :--------------------3|------------------------|------------------|
C  :-0-0-0-0*------------|0-0-0-0-0-0-0-0*-0-0-0-0|-0-0-0-0*---------|

D  :------------------------|---------------------|------------------------|
A  :------------------------|---------------------|------------------------|
F  :------------------------|---------------------|------------------------|
C  :------------------------|------------0-2-3-2--|------------------------|
G  :------------------------|--------------------3|------------------------|
C  :0-0-0-0-0-0-0-0*-0-0-0-0|-0-0-0-0*------------|0-0-0-0-0-0-0-0*-0-0-0-0|

D  :------------------|-----------------------|----------------------|
A  :------------------|-----------------------|----------------------|
F  :------------------|-----------------------|----------------------|
C  :------------0*----|-----------------------|-----------0*-----3-h5|
G  :------------0*4---|-----------------------|-----------0*3-h5-----|
C  :-0-0-0-0*---0*----|0-0-0-0-0-0*--0-0-0-0-0|-0-0*------0*---------|

D  :----------------------------|----------------|-----------------------|
A  :----------------------------|----------------|-----------------------|
F  :----------------------------|----------------|-----------------------|
C  :------------5-p3------------|0*--0*--0*--0*--|-----------------------|
G  :-----------------5-p3-------|0*--0*--0*--0*--|-----------------------|
C  :0-0-0-0-0-0*----------0-0-0*|0*--0*--0*--0*--|0-0-0-0-0-0*--0-0-0-0-0|

D  :----------------------|----------------------------|----------------|
A  :----------------------|----------------------------|----------------|
F  :----------------------|----------------------------|----------------|
C  :-----------0*-----3-h5|------------5-p3------------|0*--0*--0*--0*--|
G  :-----------0*3-h5-----|-----------------5-p3-------|0*--0*--0*--0*--|
C  :-0-0*------0*---------|0-0-0-0-0-0*----------0-0-0*|0*--0*--0*--0*--|

D  :-----------------|----------------|-------------------------|
A  :-----------------|----------------|-------------------------|
F  :-----------------|----------------|-------------------------|
C  :-------5*7*5*----|----------------|-------------------------|
G  :5-7*8*-------8*4-|------------*---|-------------------------|
C  :-----------------|----------------|0-0-0-0-0-0*-0-0*-0-0-0-0|

D  :-------------------|------------------------|--------------------|
A  :-------------------|------------------------|--------------------|
F  :-------------------|------------------------|--------------------|
C  :-------------------|------------------------|--------------------|
G  :-------------5---6-|------------------------|-------------6---5-6|
C  :*0-0-0-0*0*1---4---|0-0-0-0-0-0*-----0-0-0-0|*0-0-0-0*0*4---1----|

D  :-------------------------|-------------------|------------------|
A  :-------------------------|-------------------|-------------------|
F  :-------------------------|-------------------|-------------------|
C  :-------------------------|-------------------|0------------------|
G  :-------------------------|-------------5---6-|0------------------|
C  :0-0-0-0-0-0*-0-0*-0-0-0-0|*0-0-0-0*0*1---4---|0------------------|

D  :----------------|-------------------------|-------------------|
A  :----------------|-------------------------|-------------------|
F  :----------------|-------------------------|-------------------|
C  :0*--------------|0-0-0-0-0-0*-0-0*-0-0-0-0|*0-0-0-0*0*--------|
G  :0*--------------|0-0-0-0-0-0*-0-0*-0-0-0-0|*0-0-0-0*0*--------|
C  :0*--------------|0-0-0-0-0-0*-0-0*-0-0-0-0|*0-0-0-0*0*--------|

D  :------------------------|----------------------6*-|
A  :------------------------|--------------------8----|
F  :------------------------|------------------9------|
C  :0-0-0-0-0-0*-----0-0-0-0|*0-0-0-0*0*-----8--------|
G  :0-0-0-0-0-0*-----0-0-0-0|*0-0-0-0*0*7-10----------|
C  :0-0-0-0-0-0*-----0-0-0-0|*0-0-0-0*0*--------------|

D  :------------------------|-----------------------|
A  :------------------------|-----------------------|
F  :------------------------|-----------------------|
C  :1-1-1-1-1---0-0*-0-0-0-0|*0-0-0-0*0*------------|
G  :0-0-0-0-0---0-0*-0-0-0-0|*0-0-0-0*0*----5-----6-|
C  :1-1-1-1-1---0-0*-0-0-0-0|*0-0-0-0*0*0-0---0-0---|

D  :----------------------------|-------------------|----------------|
A  :----------------------------|-------------------|----------------|
F  :----------------------------|-------------------|----------------|
C  :0-0-0-0-0-0----------0-0-0-0|*0-0-0-0*0*--------|----------------|
G  :0-0-0-0-0-0-6-5-4-3*-0-0-0-0|*0-0-0-0*0*--------|----------------|
C  :0-0-0-0-0-0----------0-0-0-0|*0-0-0-0*0*-*------|----------------|

D  :----------------|--------------------------|------------------------|
A  :----------------|--------------------------|------------------------|
F  :----------------|--------------------------|------------------------|
C  :0-*-----0-*-0-*-|0-0-0-0-0-0-0-0-0-0-0-0-0-|0-0-0-0-0-0-0-0-0-0-0*--|
G  :0-*-----4-*-5-*-|4-4-4-4-4-4-4-4-4-4-4-4-4-|4-4-4-4-4-4-4-4-4-4-4*--|
C  :0-*-----0-*-0-*-|0-0-0-0-0-0-0-0-0-0-0-0-0-|0-0-0-0-0-0-0-0-0-0-0*--|

D  :--------------------------|--------------------------|
A  :--------------------------|--------------------------|
F  :--------------------------|--------------------------|
C  :0-0-0-0-0-0-0-0-0-0-0-0-0-|0-0-0-0-0-0-0-*-----------|
G  :4-4-4-4-4-4-4-4-4-4-4-4-4-|4-4-4-4-4-4-4-*-----------|
C  :0-0-0-0-0-0-0-0-0-0-0-0-0-|0-0-0-0-0-0-0-0-0-0*0-0-0*|

D  :--------------------------|--------------------------|
A  :--------------------------|--------------------------|
F  :--------------------------|--------------------------|
C  :--------------------------|--------------------------|
G  :--------------------------|--------------------------|
C  :0-0-0-0*0-0-0-0-0-0*0-0-0*|0-0-0-0*0-0-0-0-0-0*0-0-0*|

D  :--------------------------|----------------------------|
A  :--------------------------|-----------------------------|
F  :--------------------------|-----------------------------|
C  :--------------------------|-----------------------------|
G  :--------------------------|-----------------------------|
C  :0-0-0-0*0-0-0-0-0-0*0-0-0*|0-0-0-0*0-0-0-0-0-0*0-0-0----|

D  :---------------------------|--------------------------|
A  :---------------------------|--------------------------|
F  :---------------------------|--------------------------|
C  :---------------------------|--------------------------|
G  :--------------------8-11-8*|--------------------7-8-7*|
C  :0-0-0-0*0-0-0-0-0-0*-------|0-0-0-0*0-0-0-0-0-0*------|

D  :----------------------------|---------------------------|
A  :----------------------------|---------------------------|
F  :----------------------------|---------------------------|
C  :----------------------------|---------------------------|
G  :--------------------8-10-11*|------------11-10-8-10-8-7-|
C  :0-0-0-0*0-0-0-0-0-0*--------|0-0-0-0*0-0----------------|

D  :---------------------------|--------------------------|
A  :---------------------------|--------------------------|
F  :---------------------------|--------------------------|
C  :---------------------------|--------------------------|
G  :--------------------8-11-8*|--------------------7-8-7*|
C  :0-0-0-0*0-0-0-0-0-0*-------|0-0-0-0*0-0-0-0-0-0*------|

D  :----------------------------|---------------------------|
A  :----------------------------|---------------------------|
F  :----------------------------|---------------------------|
C  :----------------------------|---------------------------|
G  :--------------------8-10-11*|------------11-10-8-10-8-7-|
C  :0-0-0-0*0-0-0-0-0-0*--------|0-0-0-0*0-0----------------|

D  :----------------|--------------------|----------------|----------------|
A  :----------------|--------------------|----------------|----------------|
F  :----------------|--------------------|----------------|----------------|
C  :0*--------------|--------1-1-1-1-1-1-|0*--------------|----------------|
G  :0*--------------|--------0-0-0-0-0-0-|0*--------------|----------------|
C  :0*------0*-0*-0*|0*------1-1-1-1-1-1-|0*------0*-0*-0*|0*--------------|

D  :----------------|--------------------|----------------|----------------|
A  :----------------|--------------------|----------------|----------------|
F  :----------------|--------------------|----------------|----------------|
C  :0*--------------|--------1-1-1-1-1-1-|0*--------------|----------------|
G  :0*--------------|--------0-0-0-0-0-0-|0*--------------|----------------|
C  :0*------0*----0*|--------1-1-1-1-1-1-|0*------0*-0*-0*|----------------|

D  :----------------|----------------|-----------------|-----------------|
A  :----------------|----------------|-----------------|-----------------|
F  :----------------|----------------|-----------------|-----------------|
C  :0---------------|----------------|-----------------|-----------------|
G  :0---------------|----------------|12---------------|10---------------|
C  :0---------------|----------------|-8---------------|-7---------------|

D  :------------------------|--------------------------|
A  :------------------------|---------------------------|
F  :------------------------|---------------------------|
C  :12-12-12-12-12-12-12-12-|12-12-12-12-12-12-12-12----|
G  :-8--8--8--8--8--8--8--8-|-8--8--8--8--8--8--8--8----|
C  :-8--8--8--8--8--8--8--8-|-8--8--8--8--8--8--8--8----|

D  :------------------------|------------------------|
A  :------------------------|------------------------|
F  :------------------------|------------------------|
C  :12-12-12-12-12-12-12-12-|10-10-10-10-10-10-10-10-|
G  :-0--0--0--0--0--0--0--0-|-7--7--7--7--7--7--7--7-|
C  :-0--0--0--0--0--0--0--0-|-7--7--7--7--7--7--7--7-|

D  :------------------------|------------------------|----------------|
A  :------------------------|------------------------|----------------|
F  :------------------------|------------------------|3-------5-------|
C  :12-12-12-12-12-12-12-12-|12-12-12-12-12-12-12-12-|x-------x-------|
G  :-8--8--8--8--8--8--8--8-|-8--8--8--8--8--8--8--8-|1-------3-------|
C  :-8--8--8--8--8--8--8--8-|-8--8--8--8--8--8--8--8-|----------------|

D  :-----------------|----------------|----------------|----------------|
A  :-----------------|----------------|----------------|----------------|
F  :7-------10-------|----------------|----------------|----------------|
C  :x--------x-------|3---------------|----------------|----------------|
G  :5--------8-------|3---------------|----------------|----------------|
C  :-----------------|3---------------|----------------|----------------|

D  :---------------------|----------------|----------------|
A  :---------------------|----------------|----------------|
F  :---------------------|----------------|----------------|
C  :---------------------|0---------------|----------------|
G  :---------------------|0---------------|----------------|
C  :0-0*0*-0*0-0-0*0-0-0*|0---------------|----------------|

D  :----------------|---------------------|----------------|
A  :----------------|---------------------|----------------|
F  :----------------|---------------------|----------------|
C  :----------------|---------------------|3---------------|
G  :----------------|---------------------|3---------------|
C  :----------------|0-0-0--0-0-0-0-0-0-0-|3---------------|

D  :----------------|----------------|---------------------|
A  :----------------|----------------|---------------------|
F  :----------------|----------------|---------------------|
C  :----------------|----------------|---------------------|
G  :----------------|----------------|---------------------|
C  :----------------|----------------|0-0*0*-0*0-0-0*0-0-0*|

D  :----------------|----------------|-------------------|
A  :----------------|----------------|-------------------|
F  :----------------|----------------|------14-----------|
C  :----------------|----------------|12-15--------------|
G  :----------------|----------------|-------------------|
C  :----------------|----------------|-------------------|

D  :----------------------|-------------------|------------------------|
A  :----------------------|-------------------|-----------------14------|
F  :------15---------13---|------14-----------|------15-----------------|
C  :12-15------12-15------|12-15--------------|12-15------12-15---------|
G  :----------------------|-------------------|-------------------------|
C  :----------------------|-------------------|-------------------------|

D  :------------------------|------------------------|
A  :------------------------|------------------------|
F  :------14-------14-------|15-------15-------13----|
C  :12-15----12-15----12-15-|---12-15----12-15----12-|
G  :------------------------|------------------------|
C  :------------------------|------------------------|

D  :----------------------|----------------------|--------------------|
A  :----------------------|-----------------14---|--------------------|
F  :------14---------14---|------15--------------|--------------------|
C  :12-15------12-15------|12-15------12-15------|0*----0-0-0*0-0-0*--|
G  :----------------------|----------------------|4*----4-4-4*4-4-4*--|
C  :----------------------|----------------------|0*----0-0-0*0-0-0*--|

D  :-------------------|--------------------|------------------|
A  :-------------------|--------------------|------------------|
F  :-------------------|--------------------|------------------|
C  :--0-0-0*0*---------|0*----0-0-0*0-0-0*--|--0-0-0*0*1--1--1-|
G  :--4-4-4*4*10*-8*-7*|4*----4-4-4*4-4-4*--|--4-4-4*4*0--0--0-|
C  :--0-0-0*0*---------|0*----0-0-0*0-0-0*--|--0-0-0*0*1--1--1-|

D  :--------------------|-------------------|--------------------|
A  :--------------------|-------------------|--------------------|
F  :--------------------|-------------------|--------------------|
C  :0*----0-0-0*0-0-0*--|--0-0-0*0*---------|0*----0-0-0*0-0-0*--|
G  :4*----4-4-4*4-4-4*--|--4-4-4*4*10*-8*-7*|4*----4-4-4*4-4-4*--|
C  :0*----0-0-0*0-0-0*--|--0-0-0*0*---------|0*----0-0-0*0-0-0*--|

D  :----------------|--------------------|-------------------|
A  :----------------|--------------------|-------------------|
F  :----------------|--------------------|-------------------|
C  :----------------|0-----0-0-0-0-0-0---|--0-0-0-0--0--0--0-|
G  :----------------|0-----0-0-0-0-0-0---|--0-0-0-0-10--8--7-|
C  :----------------|0-----0-0-0-0-0-0---|--0-0-0-0--0--0--0-|

D  :--------------------|------------------|--------------------|
A  :--------------------|------------------|--------------------|
F  :--------------------|------------------|--------------------|
C  :0-----0-0-0-0-0-0---|--0-0-0-0-1--1--1-|0-----0-0-0-0-0-0---|
G  :0-----0-0-0-0-0-0---|--0-0-0-0-0--0--0-|0-----0-0-0-0-0-0---|
C  :0-----0-0-0-0-0-0---|--0-0-0-0-1--1--1-|0-----0-0-0-0-0-0---|

D  :-------------------|--------------------|------------------|
A  :-------------------|--------------------|------------------|
F  :-------------------|--------------------|------------------|
C  :--0-0-0-0--0--0--0-|0-----0-0-0-0-0-0---|--0-0-0-0-1--1--1-|
G  :--0-0-0-0-10--8--7-|0-----0-0-0-0-0-0---|--0-0-0-0-0--0--0-|
C  :--0-0-0-0--0--0--0-|0-----0-0-0-0-0-0---|--0-0-0-0-1--1--1-|

D  :----------------|----------------|----------------|------------------|
A  :----------------|----------------|----------------|-------------------|
F  :----------------|----------------|----------------|-------------------|
C  :*---------------|----------------|----------------|-------------------|
G  :*---------------|----------------|----------------|-------------------|
C  :*---------------|----------------|----------------|-------------------|

D  :----------------|----------------|----------------|----------------|
A  :----------------|----------------|----------------|----------------|
F  :----------------|----------------|----------------|----------------|
C  :0---------------|----------------|----------------|----------------|
G  :0---------------|----------------|----------------|----------------|
C  :0---------------|----------------|----------------|--------0-*-0-*-|

D  :----------------|----------------|----------------|----------------|
A  :----------------|----------------|----------------|----------------|
F  :----------------|----------------|----------------|----------------|
C  :0-0-*-----------|1-1-*---0-0-*---|0-0-*-----------|0-0-*---0-0-*---|
G  :0-0-*-----------|0-0-*---3-3-*---|1-1-*-----------|0-0-*---4-4-*---|
C  :0-0-*-----------|1-1-*---0-0-*---|0-0-*-----------|0-0-*---0-0-*---|

D  :----------------|----------------|----------------|----------------|
A  :----------------|----------------|----------------|----------------|
F  :----------------|----------------|----------------|----------------|
C  :0-0-*-----------|1-1-*---0-0-*---|0-0-*-----------|0-0-*---0-0-*---|
G  :0-0-*-----------|0-0-*---3-3-*---|1-1-*-----------|0-0-*---4-4-*---|
C  :0-0-*-----------|1-1-*---0-0-*---|0-0-*-----------|0-0-*---0-0-*---|

D  :----------------|----------------|----------------|----------------|
A  :----------------|----------------|----------------|----------------|
F  :----------------|----------------|----------------|----------------|
C  :0-0-------------|1-1-*---0-0-*---|0-0-*-----------|0-0-*---0-0-*---|
G  :0-0-------------|0-0-*---3-3-*---|1-1-*-----------|0-0-*---4-4-*---|
C  :0-0-------------|1-1-*---0-0-*---|0-0-*-----------|0-0-*---0-0-*---|

D  :----------------|----------------|----------------|----------------|
A  :----------------|----------------|----------------|----------------|
F  :----------------|----------------|----------------|----------------|
C  :0-0-*-----------|1-1-*---0-0-*---|0-0-*-----------|0-0-*---0-0-*---|
G  :0-0-*-----------|0-0-*---3-3-*---|1-1-*-----------|0-0-*---4-4-*---|
C  :0-0-*-----------|1-1-*---0-0-*---|0-0-*-----------|0-0-*---0-0-*---|

D  :----------------|----------------|----------------|----------------|
A  :----------------|----------------|----------------|----------------|
F  :----------------|----------------|----------------|----------------|
C  :0-0-*-----------|0-0-*---0-0-*---|0-0-*-----------|0-0-*---0-0-*---|
G  :0-0-*-----------|0-0-*---0-0-*---|0-0-*-----------|0-0-*---0-0-*---|
C  :0-0-*-----------|0-0-*---0-0-*---|0-0-*-----------|0-0-*---0-0-*---|

D  :----------------|----------------|----------------|----------------|
A  :----------------|----------------|----------------|----------------|
F  :----------------|----------------|----------------|----------------|
C  :0-0-*-----------|0-0-*---0-0-*---|0-0-*-----------|0-0-*---0-0-*---|
G  :0-0-*-----------|0-0-*---0-0-*---|0-0-*-----------|0-0-*---0-0-*---|
C  :0-0-*-----------|0-0-*---0-0-*---|0-0-*-----------|0-0-*---0-0-*---|

D  :----------------|----------------|
A  :----------------|----------------|
F  :----------------|----------------|
C  :0-0-------------|---------------*|
G  :0-0-------------|---------------*|
C  :0-0-------------|---------------*|





Comments


Popular My Heart To Fear tabs & chords
The War Bass Tabs
The Witching Hour Bass Tabs
You Be Trollin While I Be Rollin Bass Tabs
You Be Trollin While I Be Rollin Tabs


Song lyrics



↑ Back to top | Tablatures and chords are parodies/interpretations of the original songs. You may use it for private study, scholarship, research or language learning purposes only
© 2014 AZChords.com Contact us | Privacy policy | DMCA | Add/correct tabs | Request tabs | Top 50 tabs