>
 >
The War

The War Bass Tabs

My Heart To Fear - The War chords, tabs, tablatures, lyrics

Guitar lessons | Add/correct | Request | Top 50 tabs Artists:  A B C D E F G H I J K L M N O P Q R S T U V W X Y Z 0-9

The War Bass Tabs – My Heart To Fear

CD, Sheet music, Poster

Do you like The War? Share with your friends now
Bass Tabs

 Agency- 315 Artist Management and Aftershock Artist Management



Tuning: Drop C

  Intro 4x
F|--------7----------------------7-------------------------------------------|
C|-------------------8---------------------10--------------------------------|
G|---------------------8----------------------8------------------------------|
C|-00h5p0----5p0-5h7-----00h5p0----5p0-5h7------(6666666/)-------------------|

  Breakdown 1 pt. A 2x
F|---------------------------------------------------------------------------|
C|---------------------------------------------------------------------------|
G|--------------------3h5----------------------------------------------------|
C|-0-00-00-000-0-0-00-----0-00-00-000-0-0-00---------------------------------|

  Breakdown 1 pt. B 2x
F|---------------------------------------------------------------------------|
C|---------------------------------------------------------------------------|
G|--------------------3h5--------------------8/------------------------------|
C|-0-00-00-000-0-0-00-----0-00-00-000-0-0-00----(0)--------------------------|
  
  Verse 1 pt. A 2x
F|---------------------------------------------------------------------------|
C|---------------------------------------------------------------------------|
G|-----------------------------3h5p3----------------------------5-55-55-5----|
C|-888-88-888-8-8h10-0-00-00-0-------5h6p5-3-8-88-88-888-8-8h10--------------|

F|---------------------------------------------------------------------------|
C|---------------------------------------------------------------------------|
G|-88-7----------------------------------------------------------------------|
C|------10-------------------------------------------------------------------|

  Verse 1 pt. B
F|------------------------------------------------3-2-0----------------------|
C|---8-7---10-8-7----7--------3-5-3---------5-3-5---------8-7---10-8-7----7--|
G|-------8--------10---10-8-5-------7-5-0---------------------8--------10----|
C|-8--------------------------------------3-------------8--------------------|

F|----------------------------3-2-0------------------------------------------|
C|--------3-5-3---------5-3-5------------------------------------------------|
G|-10-8-5-------7-5-0-3------------------------------------------------------|
C|---------------------------------------------------------------------------|

  Verse 1 pt. C
F|---------------------------------------------------------------------------|
C|---------------------------------------------------------------------------|
G|---------------------------------------------------------------------------|
C|-88-8-8-8-8-8-8h10-00-0-0-0-33-3-333-88-8-8-8-8-8-8h10-00-0-000-33-3-333---|

F|---------------------------------------------------------------------------|
C|---------------------------------------------------------------------------|
G|---------------------------------------------------------------------------|
C|-88-8-8-8-8-8-888-7-77-777-------------------------------------------------|

  Breakdown 2 pt. A
F|---------------------------------------------------------------------------|
C|---------------------------------------------------------------------------|
G|----------------------------------------------3b---------------------------|
C|-0-000-0-0-000-00000000-0-000-0-0-3-2-0-3-2-0----0-000-0-0-000-00000000-0--|

F|---------------------------------------------------------------------------|
C|---------------------------------------------------------------------------|
G|---------5h7h8-7h8h10-8h10h12-10h12h13-------------------------------------|
C|-000-0-0-------------------------------------------------------------------|

  Breakdown 2 pt. B
F|---------------------------------------------------------------------------|
C|---------------------------------------------------------------------------|
G|----------------------------------------------3----------------------------|
C|-0-000-0-0-000-00000000-0-000-0-0-3-2-0-3-2-0---8-888-8-8-888-88888888-10--|

F|---------------------------------------------------------------------------|
C|---------------------------------------------------------------------------|
G|--------------8888888877777------------------------------------------------|
C|-101010-10-10--------------------------------------------------------------|

  Breakdown 2 pt. C
F|---------------------------------------------------------------------------|
C|---------------------------------------------------------------------------|
G|----------------------------------------------3----------------------------|
C|-0-000-0-0-000-00000000-0-000-0-0-3-2-0-3-2-0---8-888-8-8-888-88888888-10--|

F|---------------------------------------------------------------------------|
C|---------------------------------------------------------------------------|
G|--------------8888888877777------------------------------------------------|
C|-101010-10-10---------------0----------------------------------------------|

  Pre-Chorus
F|---------------------------------------------------------------------------|
C|-------------------------------------------------7----7----7----7----7--5--|
G|-----------------------------0h3p0-------------58-8-58-8-58-8-58-8-77-77---|
C|-00000-0000-22222-2222-33333------3-55555-5555-----------------------------|

F|-------------------5--5----------------------------------------------------|
C|---7--5--5h7---7-5-----875-875------7------7-------------------------------|
G|-77-77-77----88-8-8-8---------8-1010-101010-10-----------------------------|
C|---------------------------------------------------------------------------|

  Chorus 1 4x
F|---------------------------------------------------------------------------|
C|-----------------------------------------3----/753-3--------7--------3-----|
G|---5--5--5--5--8----5--5--5--5--3h5-553h5-53h5----5-530-8888-888-5555-5----|
C|-88-88-88-88-88-5-55-55-55-55-55-------------------------------------------|

F|---------------------------------------------------------------------------|
C|---------------------------------------------------------------------------|
G|-3h5-----------------------------------------------------------------------|
C|-----(8-5)-----------------------------------------------------------------|

  Breakdown 3 pt.A
F|---------------------------------------------------------------------------|
C|---------------------------------------------------------------------------|
G|--------------6h8---8-6--------------3h5-6-6-------------------------------|
C|-0-0-000-0-00-----0-----0-0-000-0-00---------0-0-000-0---------------------|

  Breakdown 3 pt. B 2x
F|---------------------------------------------------------------------------|
C|---------------------------------------------------------------------------|
G|---------------------------------------------------------------------------|
C|-0-0-000-0-00-1h3-0-3-1-0-0-000-0-00-1h3-0-6-3-0-0-000-0-00-1h3-0-3-1------|

F|---------------------------------------------------------------------------|
C|---------------------------------------------------------------------------|
G|---------------------------------------------------------------------------|
C|-0-0-000-0-00-1h3-0-3-1----------------------------------------------------|

  Verse 2 (Same as Verse 1 pt. A)

  Bridge 3x
F|--------------------------------0-2-320-0----------------------------------|
C|------------------------------32-3-3---3-32--------------------------------|
G|---------------------------------------------------------------------------|
C|-88-88-00-3-00-5-00-7-88-88-00---------------------------------------------|

  Pre-Chorus 2
F|---------------------------------------------------------------------------|
C|---------------------------------------------------------------------------|
G|---------------------------------------------------------------------------|
C|-8-5-0-33333333-22222------------------------------------------------------|

  Chorus 2(Same as Chorus 1) Just end prematurely on the A-string 7th fret D note

  Outro Breakdown(Same as Breakdown 1)

Thank you all so much!

-Taylor

| /  slide up
| \  slide down
| h  hammer-on
| p  pull-off
| ~  vibrato
| +  harmonic
| x  Mute note
| b  Bend
===============================================================================





Comments


Popular My Heart To Fear tabs & chords
The Witching Hour Bass Tabs
You Be Trollin While I Be Rollin Bass Tabs
The Witching Hour Tabs
You Be Trollin While I Be Rollin Tabs


Song lyrics



↑ Back to top | Tablatures and chords are parodies/interpretations of the original songs. You may use it for private study, scholarship, research or language learning purposes only
© 2014 AZChords.com Contact us | Privacy policy | DMCA | Add/correct tabs | Request tabs | Top 50 tabs