>
 >
Terra Firma

Terra Firma Guitar Tabs

Mychildren Mybride - Terra Firma chords, tabs, tablatures, lyrics

Guitar lessons | Add/correct | Request | Top 50 tabs Artists:  A B C D E F G H I J K L M N O P Q R S T U V W X Y Z 0-9

Terra Firma Guitar Tabs – Mychildren Mybride

CD, Sheet music, Poster

Do you like Terra Firma? Share with your friends now
TabsTabs v2
The first released song off their new album 'Lost Boy'!! This is a really sick song, 
Check out my cover for additional help!!!

DROP B TUNING
right before he says 'In death we will ascend' this plays

|--------------------|
|--------------------|
|--------------------|
|--------------------|
|-5-0-1-4-0-1-8-7----|
|-3-0-1-2-0-1-6-5----|


|-----------------------------------------------|
|-----------------------------------------------|
|-----------------------------------------------|
|-----------------------------------------------|
|-11--11--11--11--11--11--11--11--11--11--1111--|
|-22--22--22--22--22--22--22--22--22--22--2222--|

|-----------------------------------------------|
|-----------------------------------------------|
|-----------------------------------------------|
|-----------------------------------------------|
|-11--11--11--1111-5-0-1-4-0-1-8-7--------------|
|-22--22--22--2222-3-0-1-2-0-1-6-5--------------|

play that twice, then it changes very slightly on the chugs, but same chord is used. The 
time its played, the riff at the end is different, it plays

|---------------------|
|---------------------|
|---------------------|
|-----------4---------|
|-5-0-2-1-0-2-3-0-----|
|-3-0-2-1-0---3-0-----|

|-----------------------------------------------|
|-----------------------------------------------|
|-----------------------------------------------|
|-----------------------------------------------|
|-5-4-7-5--0000-0000--10-8-7-5--0000-0000-------|
|-3-2-5-3--0000-0000--8--6-5-3--0000-0000-------|
THATS PLAYED TWICE, THEN:

|---------------------------------------------------|
|---------------------------------------------------|
|---------------------------------------------------|
|-------------------5-------------------------------|
|-5-0000-4----5-7-8---8-7-5--10-0000-8--------5-7-8-|
|-3-0000-2--8----------------8--0000-6--5-7-8-------|
that riff is played four times then


|-----------------------------------------------|
|-----------------------------------------------|
|-----------------------------------------------|
|-------------------------12-12-12-12-----------|
|-5-0-0-4-7777--10-0-0-8--8--8--8--8------------|
|-3-0-0-2-5555--8--0-0-6------------------------|
that is played four times, before the pit party two step:


|-------------------------------------|
|-------------------------------------|
|-------------------------------------|
|-------------------------------------| X2
|-5-0-0-4-0-0-0-0-0-5-0-0-4-0-0-4-5---|
|-3-0-0-2-0-0-0-0-0-3-0-0-2-0-0-2-3---|


|---------------------------|
|---------------------------|
|---------------------------|
|-8--3--6--5--0--1--6--5----|
|-8--3--6--5--0--1--6--5----|
|-8--3--6--5--0--1--6--5----|
Then the riff right before this two step is played again, except with a breakdown. but 
same chord is used.

then

|-----------------------------------------------|
|-----------------------------------------------|
|-----------------------------------------------|
|-----------------------------------------------|
|-5-4-7-5--0000-0000--10-8-7-5--0000-0000-------|
|-3-2-5-3--0000-0000--8--6-5-3--0000-0000-------|
Played twice

|-----------------------------
|-----------------------------\
|----------------------------- \
|-------------0-----------0---  \
|-5-0-0-4-5-0-0-0-0-4-5-0-0-0-   \________
|-3-0-0-2-3-0-0-0-0-2-3-0-0-0-            \ X4
                                         /  
|-------------------------------------  /
|------------------------------------- /
|-------------------------------------/
|-------------------------------------
|-4-5-7-0-0-5-7-0-4-0-0-5-7-0-4-0-4-5-
|-2-3-5-0-0-3-5-0-2-0-0-3-5-0-2-0-2-3-

|-------------------------------------|
|-------------------------------------|
|-------------------------------------|
|-------------------------------------| X2
|-5-0-0-4-0-0-0-0-0-5-0-0-4-0-0-4-5---|
|-3-0-0-2-0-0-0-0-0-3-0-0-2-0-0-2-3---|


|---------------------------|
|---------------------------|
|---------------------------|
|-8--3--6--5--0--1--6--5----|
|-8--3--6--5--0--1--6--5----|
|-8--3--6--5--0--1--6--5----|

then it ends on some chugs off of:

|------------|
|------------|
|------------|
|-0----------|
|-0-AND-1----|
|-0-----2----|


ENJOY!
and dont forget to check out my video and many others!!





Comments


Popular Mychildren Mybride tabs & chords
Headshot! Bass Tabs
Crimson Grim Tabs
Faithless Intro Tabs
FaithlessIntro Tabs
Headshot Intro Tabs
Headshot! 1 Tabs
Hooligans Tabs
Hooligans 1 Tabs
Immaculate Murder Intro Tabs
On Wings Of Integrity 2 Tabs


Song lyrics



↑ Back to top | Tablatures and chords are parodies/interpretations of the original songs. You may use it for private study, scholarship, research or language learning purposes only
© 2014 AZChords.com Contact us | Privacy policy | DMCA | Add/correct tabs | Request tabs | Top 50 tabs