» » »

Mychildren Mybride, Headshot Tabs (ver.4)

Artists:  A B C D E F G H I J K L M N O P Q R S T U V W X Y Z # 

Headshot Tabs (ver.4)

Mychildren Mybride Tabs
Rating:
0/5 (0 votes)
Headshot lessons Tabs too difficult? Try these video lessons and learn fast
                HeadShot - Mychildren Mybride
-------------------------------------------------------------------------------

Tuning: D a d g b e

            I just Have the part when they said headshot!

e|-----------------------------------------------------------------------|2x
b|-----------------------------------------------------------------------|
g|-----------------------------------------------------------------------|
d|-6--5--3--5--6--5--0-------6--5--3--5--6--5--2---2-2-2-/3-3-5----------|
a|-6--5--3--5--6--5--0-------6--5--3--5--6--5--2---2-2-2-/3-3-5----------|
D|-6--5--3--5--6--5--0-------6--5--3--5--6--5--2---2-2-2-/3-3-5----------|
                                                   . . .  . . .
e|-----------------------------------------------------------------------|
B|-----------------------------------------------------------------------|
G|-----------------------------------------------------------------------|
D|-6--5--3--5--6--5--0---0-0-0-0-0-0---6--5--3--5--0--3---3-3-3-3-3-5----|
A|-6--5--3--5--6--5--0---0-0-0-0-0-0---6--5--3--5--0--3---3-3-3-3-3-5----|
D|-6--5--3--5--6--5--0---0-0-0-0-0-0---6--5--3--5--0--3---3-3-3-3-3-5----|               
         . . . . . .                      . . . . . .


| /  slide up
| \  slide down
| h  hammer-on
| p  pull-off
| ~  vibrato
| +  harmonic
| .  Mute note
===============================================================================
            
Submit corrections

comments powered by Disqus
↑ Back to top | Mychildren Mybride Tabs for Headshot. Lyrics for acoustic guitar and electric guitar. Tablatures and chords are parodies/interpretations of the original songs. You may use it for private study, scholarship, research or language learning purposes only