» » »

Mychildren Mybride, Faithless Tabs (ver.1)

Artists:  A B C D E F G H I J K L M N O P Q R S T U V W X Y Z # 

Faithless Tabs (ver.1)

Mychildren Mybride Tabs
Rating:
5/5 (3 votes)
Faithless lessons Tabs too difficult? Try these video lessons and learn fast
                (Intro)
MyChildren MyBride
Faithless
Unbreakable
Solid State Records


~ = Let ring
h = Hammer
. = Palm mute




Section A

0:02

Guitar 1
|--------------------------------------------------------------|
|--------------------------------------------------------------|
|--------------------------------------------------------------|
|--7~-3h2h3~-5h7h5~-2h0h2~-3h2h3~-----------7-5-3-2~-3-33-5-55-|
|---------------------------------5h4h5~-----------------------|
|--------------------------------------------------------------|
                                                       ..   ..

Guitar 2
|--------------------------------------------------------------|
|-10~-6h5h6~-8h10h8~-5h3h5~-6h5h6~---------10-8-6-5~-6-66-8-88-|
|----------------------------------7h6h7~----------------------|
|--------------------------------------------------------------|
|--------------------------------------------------------------|
|--------------------------------------------------------------|
                                                       ..   ..

0:11

Guitar 1

|--------------------------------------------------------------|
|--------------------------------------------------------------|
|--------------------------------------------------------------|
|--7~-3h2h3~-5h7h5~-2h0-8-7-5-3~---------2h3h2~----------2-3-5-|
|---------------------------------5h4h5~--------5h4h5~---------|
|--------------------------------------------------------------|

Guitar 2

|--------------------------------------------------------------|
|-10~-6h5h6~-8h10h8~-5h3-11-10-8-6~--------5h6h5~--------5-6-8-|
|----------------------------------7h6h7~--------7h6h7~--------|
|--------------------------------------------------------------|
|--------------------------------------------------------------|
|--------------------------------------------------------------|

Repeat Section A once more


Section B

0:39

Guitar 1

|---------------|
|---------------|
|---------------|
|-------8h7-5h7-|
|-7-7h8---------|
|---------------|


Section C (this entire section is pull offs, except for the hammers)

0:40

Guitar 1

|-----------------------------------------------------------------------------|
|-----------------------------------------------------------------------------|
|-----------------------------------------------------------------------------|
|---------------------------------------------------------------------8h7-5h7-|
|--8-10-12-8-10-12-8--7-7-8-10-7-8-10-8--5-5-7-8-5-7-8-7--7-7-8-10-7-8--------|
|-----------------------------------------------------------------------------|

Guitar 2

|-----------------------------------------------------------------------------|
|-----------------------------------------------------------------------------|
|-----------------------------------------------------------------------------|
|---------------------------------------------------------------------8h7-5h7-|
|--8-10-12-8-10-12-8--7-7-8-10-7-8-10-8--5-5-7-8-5-7-8-7--7-7-8-10-7-8--------|
|-----------------------------------------------------------------------------|


I don't feel like tabbing out pass 0:49
Learn it yourself
I helped you get started =P
            

comments powered by Disqus
↑ Back to top | Mychildren Mybride Tabs for Faithless. Lyrics for acoustic guitar and electric guitar. Tablatures and chords are parodies/interpretations of the original songs. You may use it for private study, scholarship, research or language learning purposes only