» » »

Choke Tabs (ver.1)

Artists:  A B C D E F G H I J K L M N O P Q R S T U V W X Y Z # 

Choke Tabs (ver.1)

Mychildren Mybride
Rating:
4/5 (3 votes)

Hard to play? Try these video lessons and learn fast.
                (Intro)
-------------------------------------------------------------------------------
                             Choke - MyChildren MyBride
-------------------------------------------------------------------------------

Really sweet song, i know ive probably got a couple notes off, but its
really close.. i might finish the rest of the song sometime. 


Tuning:Drop B
   
  (Intro X2)
e|--------------------------------------------------------------------------------------|
B|--------------------------------------------------------------------------------------|
G|--------------------------------------------------------------------------------------|
D|-0---------0---3---2---2-2-2-2---3---0---------5---7---8----8--8--8--7---7-7-7--------|
A|-0---0-0-0-0---5---4---4-4-4-4---5---0---0-0-0-7---8---10---10-10-10-8---8-8-8--------|
E|-0---0-0-0-0-------------------------0---0-0-0----------------------------------------|
       . . .             . . .             . . .              .  .  .      . 

  (X2) 
  (If every star fell out of the sky tonight...)  
e|---------------------------------------------------------|
B|---------------------------------------------------------|
G|---------------------------------------------------------|
D|--------------------------------------------------887755-|
A|-8-7-8-8-7-8-8-7-8-10108877-10-7-8-10-7-8-10-7-8---------|
E|--0-0-0-0-0-0-0-0-------------0-0-0--0-0-0--0-0-0--------|
    . . . . . . . .             . . . 
E|---------------------------------------------------------------|
B|---------------------------------------------------------------|
G|---------------------------------------------------------10--9-|
D|----8-8-8-7-7--------------------------------------------------|
A|----------------12-12-12-13-10---10-12---8-7-------------8--7--|
E|-7-7-7-7-7-7-8-8--8--8--8--8---00------00----000-000-000-------|
   . . . . . . . .  .  .  .  .   ..      ..    ... ... ...


| /  slide up
| \  slide down
| h  hammer-on
| p  pull-off
| ~  vibrato
| +  harmonic
| x  Mute note
| .  Palm Mute
===============================================================================
            
Hard to play? Try these video lessons and learn fast. | Correct




comments powered by Disqus
↑ Back to top | Tablatures and chords are parodies/interpretations of the original songs. You may use it for private study, scholarship, research or language learning purposes only