>
 >
Mama

Mama Guitar Tabs

My Chemical Romance - Mama chords, tabs, tablatures, lyrics

Guitar lessons | Add/correct | Request | Top 50 tabs Artists:  A B C D E F G H I J K L M N O P Q R S T U V W X Y Z 0-9

Mama Guitar Tabs – My Chemical Romance

CD, Sheet music, Poster

Do you like Mama? Share with your friends now
Bass TabsBass Tabs v2Bass Tabs v3ChordsChords v2TabsTabs v2Tabs v3Tabs v4Ukulele
Band: My Chemical Romance
Tuning: eBGDAE

Intro

E---7---------7---------5----5----7----7----3----3----0-------3---3---0----|
B---8---------7---------5----5----7----7----3----3----0-------3---3---0----|
G---9--X 7----8--X 4----6----6----8----8----4----4----0--X 4--4---4---0-X 4|
D---9---------9---------7----7----9----9----5----5----2-------5---5---2----|
A---7---------9---------7----7----9----9----5----5----2-------5---5---2----|
E-0---------7-7-------5-5--5-5--7-7--7-7--3-3--3-3--0-0-----3-3-3-3-0-0----|

Verse

E---7---------7--------5----5----7----7----3----3----0--------3---3---0----|
B---8---------7--------5----5----7----7----3----3----0--------3---3---0----|
G---9--X 12---8--X 4---6----6----8----8----4----4----0--X 4---4---4---0----|
D---9---------9--------7----7----9----9----5----5----2--------5---5---2----|
A---7---------9--------7----7----9----9----5----5----2--------5---5---2----|
E-0---------7-7------5-5--5-5--7-7--7-7--3-3--3-3--0-0------3-3-3-3-0-0----|

[Repeat]

Chorus

E------------------------------------------------------------------------|
B------------------------------------------------------------------------|
G-5-5-5-5-5-5-5-5-7-7-7-7------------------------------------------------|
D-5-5-5-5-5-5-5-5-7-7-7-7---------5-5-5-5-5-5-5-5-5-1010101010-----------|
A-3-3-3-3-3-3-3-3-5-5-5-5-5-7-5b3b5-5-5-5-5-5-5-5-5-1010101010-----------|
E---------------------------------3-3-3-3-3-3-3-3-3-8-8-8-8-8-10-8b6b----|

E------------------------------------------------------------------------|
B------------------------------------------------------------------------|
G------------------------------------------------------------------------|
D-3-3-3-3-3-3-X-3bX-9-9-9-9-9-9-9-9--2~--4~--5~-----------5~--8~--9~-----|
A-3-3-3-3-3-3-X---X-9-9-9-9-9-9-9-9--2~--4~--5~--------2--3~--6~--7~-----|
E-1-1-1-1-1-1-X---X-7-7-7-7-7-7-7-7--0~--2~--3~--0-2-4-------------------|


[Repeat Verse & Chorus]
[Chorus]
Repeat Verse with bends on the bar chords

Bridge
Sick Riff
E------------------------------------------------------------------------|
B------------------------------------------------------------------------|
G------------------------------------------------------------------------|
D---------------------------------------------------------------X 2------|
A----7-0-----7-0-----7-0-----7-0-2-2-3-0-2-3-1-2-3-0-2-0-----------------|
E--0-----7-0-----7-0-----7-0-----------------------------3-2-------------|

Bridge 2
                           
E------------------------------------------------------------------------|
B------------------------------------------------------------------------|
G------------------------------------------------------------------------|
D-7-7-7-9-9-9-5-5-5-2-2-2-2-2-2-4-4-4-2-2-2------------------------------|
A-7-7-7-9-9-9-5-5-5-2-2-2-2-2-2-4-4-4-2-2-2------------------------------|
E-5-5-5-7-7-7-3-3-3-0-0-0-0-0-0-2-2-2-0-0-0------------------------------|
pm.......................................................................

Bridge 3

E------------------------------------------------------------------------|
B------------------------------------------------------------------------|
G------------------------------------------------------------------------|
D-2-2-2-2-2-2-2-2-2-2-2-2-2-2-2-7-7-7-9-9-9-9-9-9-7-7-7-9-9-9-5-5-5-2-2-2|
2-2-2-2-2-2-2-2-2-2-2-2-2-2-2-2-7-7-7-9-9-9-9-9-9-7-7-7-9-9-9-5-5-5-2-2-2|
E-0-0-0-0-0-0-0-0-0-0-0-0-0-0-0-5-5-5-7-7-7-7-7-7-5-5-5-7-7-7-3-3-3-0-0-0|

E------------------------------------------------------------------------|
B------------------------------------------------------------------------|
G------------------------------------------------------------------------|
D-2-2-2-4-4-4-2-2-2-2-2-2--------X 2-------------------------------------|
A-2-2-2-4-4-4-2-2-2-2-2-2------------------------------------------------|
E-0-0-0-2-2-2-0-0-0-0-0-0------------------------------------------------|





Comments


Popular My Chemical Romance tabs & chords
Famous Last Words 2 Bass Tabs
Teenagers 4 Bass Tabs
Blood Chords
Dead 2 Chords
Famous Last Words Chords
Desert Song Intro Tabs
Disenchanted 7 Tabs
Do You Know What They Do To Guys Like Us In Prison Tabs
Summertime Tabs
Vampire Money 3 Tabs


Song lyrics



↑ Back to top | Tablatures and chords are parodies/interpretations of the original songs. You may use it for private study, scholarship, research or language learning purposes only
© 2014 AZChords.com Contact us | Privacy policy | DMCA | Add/correct tabs | Request tabs | Top 50 tabs