» » »

My Bloody Valentine, Soon Tabs (ver.1)

Artists:  A B C D E F G H I J K L M N O P Q R S T U V W X Y Z # 

Soon Tabs (ver.1)

My Bloody Valentine Tabs
 Rating:
4/5 (4 votes)
Soon lessons Tabs too difficult? Try these video lessons and learn fast
                -------------------------------------------------------------------------------
                             My Bloody Valentine - Soon
-------------------------------------------------------------------------------

Dunno if this is the way its actually played cos its hard to get good live footage, but 
way sounds pretty damn good to me...

Tuning: Tuned to drop-d with a capo on the fourth fret

You're gonna need a lot of effects (reverb, eq etc) to get the right sound.

                                   Intro/Chorus
e|-------------------------------------------------------------------------------|
B|-------------------------------------------------------------------------------|
G|--7--7--7-7-7--7--7-7-7-7-7-7-7-7-7-7-7-7-7-7----------------------------------|
D|--7--7--7-7-7--7--7-7-7-7-7-7-7-7-7-7-7-7-7-7----------------------------------|
A|--5--5--5-5-5--5--5-5-5-5-5-5-5-5-5-5-5-5-5-5----------------------------------|
E|--0--0--0-0-0--0--5-5-5-5-5-5-5-5-5-5-5-5-5-5----------------------------------|

                               Verse
The strumming for this bit is just straightforward 8ths of a bar, i.e pretty fast, so im 
gonna write the chord sequence

e|---------------------------------------------------------------------------------|
B|---------------------------------------------------------------------------------|
G|--2------0------7------5---------------------------------------------------------|
D|--0------0------7------0---------------------------------------------------------|
A|--5------5------5------8---------------------------------------------------------|
E|--5------3------0------8---------------------------------------------------------|

By the way the tabs are written with the fret the capo is on being zero...
            
Submit corrections

comments powered by Disqus
↑ Back to top | My Bloody Valentine Tabs for Soon. Lyrics for acoustic guitar and electric guitar. Tablatures and chords are parodies/interpretations of the original songs. You may use it for private study, scholarship, research or language learning purposes only