» » »

My Bloody Valentine, Only Shallow Tabs (ver.1)

Artists:  A B C D E F G H I J K L M N O P Q R S T U V W X Y Z # 

Only Shallow Tabs (ver.1)

My Bloody Valentine Tabs
 Rating:
4/5 (5 votes)
Only Shallow lessons Tabs too difficult? Try these video lessons and learn fast
                -----------------------------------------------------------------------------
-----------------------------------------------------------------------------

Tuning: EADGBe

Intro and Chorus
Guitar 1
e|-------------------------|
B|-------------------------|
G|-------------------------|
D|-3-3/5-5-5-8-8/10-10-10--|
A|-3-3/5-5-5-8-8/10-10-10--|
E|-1-1/3-3-3-6-6/8--8--8---|

Guitar 2
e|-10----5-----|
B|-13b15-8b10--|
G|-------------|
D|-------------|
A|-------------|
E|-------------|

Verse

e|-------------------------1-1--1--1--1--1--1--1--1--3--3--3--3--3--3--3-|
B|-3--3--3--3--3--3--3--3--1-1--1--1--1--1--1--1--1--6--6--6--6--6--6--6-|
G|-4--4--4--4--4--4--4--4--3-3--3--3--3--3--3--3--3--5--5--5--5--5--5--5-|
D|-0--0--0--0--0--0--0--0--3-3--3--3--3--3--3--3--3--5--5--5--5--5--5--5-|
A|-x--x--x--x--x--x--x--x--1-1--1--1--1--1--1--1--1--3--3--3--3--3--3--3-|
E|-3--3--3--3--3--3--3--3--1-1--1--1--1--1--1--1--1--3--3--3--3--3--3--3-|

-1--1--1--1--1--1--1--1--|
-1--1--1--1--1--1--1--1--|
-3--3--3--3--3--3--3--3--|
-3--3--3--3--3--3--3--3--|
-1--1--1--1--1--1--1--1--|
-1--1--1--1--1--1--1--1--| bend tremelo arm down a bit on last few chords


| /  slide up
| \  slide down
| h  hammer-on
| p  pull-off
| ~  vibrato
| +  harmonic
| x  Mute note
=============================================================================
            
Submit corrections

comments powered by Disqus
↑ Back to top | My Bloody Valentine Tabs for Only Shallow. Lyrics for acoustic guitar and electric guitar. Tablatures and chords are parodies/interpretations of the original songs. You may use it for private study, scholarship, research or language learning purposes only