» » »

Requiem Tabs (ver.1)

Artists:  A B C D E F G H I J K L M N O P Q R S T U V W X Y Z # 

Requiem Tabs (ver.1)

M Ward
Rating:
0/5 (0 votes)
Tabs too difficult? Try these video lessons and learn fast.
                "Requiem" by M. Ward

No capo, note tuning.

Intro:

D ---
A ---
G -2-
D -4-
A -0-
D -0-

Verses 1 & 2:

D ---0---0---4-0-----0---|
A ---2---0---0-2-----2---|
G -2-0-2-0-2-5-0-7-2-0-2-|
D -4-0-4-2-4-0-0-6-4-0-4-|
A -0---0-0-0-0-----0---0-|
D -0---0-0-0-------0---0-|

Verse 3:

Repeat 2x

D ---0---0-0-|
A ---2---2-0-|
G -2-0-2-0-0-|
D -4-0-4-0-2-|
A -0---0---0-|
D -0---0---0-|

Then

---4-0-----0---|
---0-2-----2---|
-2-5-0-7-2-0-2-|
-4-0-0-6-4-0-4-|
-0-------0---0-|
-0-------0---0-|
            
Tabs too difficult? Try these video lessons and learn fast.


comments powered by Disqus
↑ Back to top | Tablatures and chords are parodies/interpretations of the original songs. You may use it for private study, scholarship, research or language learning purposes only