» » »

Here Comes The Sun Again Chords (ver.1)

Artists:  A B C D E F G H I J K L M N O P Q R S T U V W X Y Z # 

Here Comes The Sun Again Chords (ver.1)

M Ward
Rating:
5/5 (6 votes)

Hard to play? Try these video lessons and learn fast.
                -------------------------------------------------------------------------------
                  Here Comes The Sun Again - M. Ward
-------------------------------------------------------------------------------

Tuning:Standard EADGBE

PIANO INTRO  triplet feel

e|-3-3-3--0-3-3-3--1-0---0------0--0-0----------0-------0---0-8--------------|
B|--------------------3----3------3-----3-1-1--3-3--3-0----3-----------------|
G|---------------------------0-----------------------------------------------|
D|---------------------------------------------------------------------------|
A|---------------------------------------------------------------------------|
E|---------------------------------------------------------------------------|
 acoustic guitar fades in
       C         F    G      C       Am     F    G      C
e|-----0---------1----3------0-------0------1----3------0--------------------|
B|-----1---------1----0------1-------1------1----0------1--------------------|
G|-----0---------2----0------0-------2------2----0------0--------------------|
D|-----2---------3----0------2-------2------3----0------2--------------------|
A|-----3---------3----2------3-------0------3----2------3--------------------|
E|-----0---------1----3------0-------x------1----3------0--------------------|


verse
  
C            F               G           C                
Kingdoms and queens they all bow down to you,  
             Am           F         C
Branches and ranch hands are bowin' too
C             Am      F            G            
And Ive taken off my straw hat for you, singing 
C              G          C
Here comes the sun again

C                 F               G            C                
The leaves on the trees they all call out your name, 
              Am           F           C
Chrome on the freight line shines the same
C                Am                     F             G           
And the stars in their cars roll their tarps down for you singing, 
C              G          C
Here comes the sun again


Bridge

       Em                             Am
Oh but if you're gunna stay show some mercy today
F      G            C
Lonely breeze on my face

Verse (same chords)

Snow banks drift down the hillside for you, 
slides inside sandy river before the day is through,
and before evenin' falls I may find myself there too, singing
here comes the sun again, here comess the sun again
            
Hard to play? Try these video lessons and learn fast. | Correct




comments powered by Disqus
↑ Back to top | Tablatures and chords are parodies/interpretations of the original songs. You may use it for private study, scholarship, research or language learning purposes only