» » »

Chinese Translation Tabs (ver.3)

Artists:  A B C D E F G H I J K L M N O P Q R S T U V W X Y Z # 

Chinese Translation Tabs (ver.3)

M Ward
Rating:
5/5 (1 vote)

Hard to play? Try these video lessons and learn fast.
                 tuning: D6 - DADF#BE


VERSE
--(0)-(0)-(0)------|
---0---0---0---2---|
---0---1---0---3---|
---4---2---4---2---|
---5---2---5---0---|
---0---2---0-------|
   D   em  D   A

CHORUS PART A
--(0)--5--(0)--|
---0---5---0---|
---0---5---0---|
---4---5---4---|
---5---5---5---|
---0---5---0---|
   D    G   D

CHORUS PART B
---2---2-----5--------7----|
---3---1-----5---3---7-----|
---3--(3)----5---4---7-----|
---0---2-----5---5---7-----|
---0---0-----5---5---7-----|
---0---0-----5--------7----|
   D   D7  G   gm   A

BRIDGE
--(0)-(0)--(0)----5------(0)--------|
---0---0----0-----5---2---0---2-----|
---0---1----3-----5---3---1---3-----|
---4---2----4-----5---2---2---2-----|
---5---2----4-----5---0---2---0-----|
---0---2---(4)----5--------2--------|
   D  em  f#m  G   A   em   A
            
Hard to play? Try these video lessons and learn fast. | Correct




comments powered by Disqus
↑ Back to top | Tablatures and chords are parodies/interpretations of the original songs. You may use it for private study, scholarship, research or language learning purposes only