» » »

Typical Tabs (ver.2)

Artists:  A B C D E F G H I J K L M N O P Q R S T U V W X Y Z # 

Typical Tabs (ver.2)

Mute Math
Rating:
3/5 (3 votes)

Hard to play? Try these video lessons and learn fast.
                 ---------------------------------------------------------------------------
 Typical - Mutemath
---------------------------------------------------------------------------

Mutemath

Typical

Tuning: Standard eBGDAE


Key 

.  - palm mute
/  - slide up and down to
b  - Bend
() - Natural harmonics
*  - Pinch harmonics
h  - Hammer
p  - Pull off
"  - Tremolo Picking
x  - Mute

What may sound like the second guitar is actually keybaord so I'm not tabbing that out. 


Intro/Chorus Overdrive (Figure out the strumming yourselves.)
e|------------------------------------||
B|--6/8-------6-------11-------9------||
G|------------------------------------|| 
D|--3/5-------3-------8--------6------|| x 6 
A|--4/6-------4-------9--------8------||
E|------------------------------------||


Verse Clean with a touch of delay
e|------------------------------------||
B|------------------------------------||
G|-----10-----------------------------|| 
D|--8--------8--11-----8--10----------|| x 2
A|------------------------------------||
E|------------------------------------||


e|------------||
B|---8/9------||
G|------------|| 
D|------------|| x2
A|------------||
E|------------||

e|---------------------------||
B|---------------------------||
G|-----10--------------------|| 
D|--8--------8--11-----8--10-|| x 2
A|---------------------------||
E|---------------------------||



Chorus Overdrive (Figure out the strumming)
e|------------------------------------||
B|--6/8-------6-------11-------9------||
G|------------------------------------|| 
D|--3/5-------3-------8--------6------|| x 4 
A|--4/6-------4-------9--------8------||
E|------------------------------------||



Verse 2 Clean with a touch of delay
e|------------------------------------||
B|------------------------------------||
G|-----10-----------------------------|| 
D|--8--------8--11-----8--10----------|| x 2
A|------------------------------------||
E|------------------------------------||


e|------------||
B|---8/9------||
G|------------|| 
D|------------|| x2
A|------------||
E|------------||

e|---------------------------||
B|---------------------------||
G|-----10--------------------|| 
D|--8--------8--11-----8--10-|| x 2
A|---------------------------||
E|---------------------------||




Chorus 2 Overdrive (Figure out the strumming)
e|------------------------------------||
B|--6/8-------6-------11-------9------||
G|------------------------------------|| 
D|--3/5-------3-------8--------6------|| x 8 
A|--4/6-------4-------9--------8------||
E|------------------------------------||



Interlude
e|------------------------------------------------||
B|------------------------------------------------||
G|------------------------------------------------|| 
D|--Keyboard--------------------------------------|| 
A|------------------------------------------------||
E|------------------------------------------------||



Outro Chorus Overdrive (Figure out the strumming)
e|------------------------------------||
B|--6/8-------6-------11-------9------||
G|------------------------------------|| 
D|--3/5-------3-------8--------6------|| x 20 
A|--4/6-------4-------9--------8------||
E|------------------------------------||
            
Hard to play? Try these video lessons and learn fast. | Correct




comments powered by Disqus
↑ Back to top | Tablatures and chords are parodies/interpretations of the original songs. You may use it for private study, scholarship, research or language learning purposes only