» » »

Mute Math, Typical Bass tabs (ver.1)

Artists:  A B C D E F G H I J K L M N O P Q R S T U V W X Y Z # 

Typical Bass tabs (ver.1)

Mute Math Tabs
Rating:
3/5 (5 votes)
Typical lessons Tabs too difficult? Try these video lessons and learn fast
                # This is the author's own work and represents their interpretation of the  #
# song. You may only use this for private study, scholarship, or research.  #

-----------------------------------------------------------------------------
-----------------------------------------------------------------------------




Played by: Roy Mitchell-Cardenas
Tuning: EADG


NOTES: I took a lot of this from watching this video: 

It's not exactly like the video, and I know its not perfect, but I couldn't find this 
on the entire internet.... so it had to be done.



0:00   Guitar	x4
|--------r--------|
|*-------e-------*|
|*-------s-------*|
|--------t--------|

0:10		x2
|-----------------|
|-----------------|
|4h6-4h6--4h6-4h6\|
|-----------------|

0:15
|-------6-----6-8-|-----6------8--8-|
|-----6-----------|-4-4--4-6-66-66--|
|-6-6----6-66-----|-----------------|
|-----------------|-----------------|

|-6h88888-66-6----|-----------------|-----------------|-----------------|
|--------------8/4|-4-4-4-46-66-64--|-----------------|-----------------|
|-----------------|------6--------64|-4h66666--44-4---|--------------46-|
|-----------------|-----------------|---------------6/|2-22222-4-44-6---|

0:29		Verse		   x8
|-----------------|-------------6-8-|
|-----6/13-13x6---|4444--6666-8-----|
|-666-------------|-----------------|
|-----------------|-----------------|

0:59		Chorus		   x4
|-----------------|-----------------|
|-----------------|-----------------|
|-4h66666-44-444--|--------------46-|
|-----------------|-2-2-22--4-446---|

1:19		Verse		   x6
|-----------------|-------------6-8-|
|-----6/13-13x6---|4444--6666-8-----|
|-666-------------|-----------------|
|-----------------|-----------------|

1:48		Chorus		   x8
|-----------------|-----------------|
|-----------------|-----------------|
|-4h66666-44-444--|--------------46-|
|-----------------|-2-2-22--4-446---|

2:28		Bridge
|--------r--------|--------r--------|--------r--------|-----------------|
|--------e--------|--------e--------|--------e--------|-/5--------------|
|--------s--------|--------s--------|--------s--------|-----6-----------|
|--------t--------|--------t--------|--------t--------|-----------------|

|-1h3---1h3-1h3---|-----------------|-1h3---1h3-1h3---|-----------------|
|-----------------|-/55-------------|-----------------|-----------------|
|-----------------|-----66----------|-----------------|-----------------|
|-----------------|-----------------|-----------------|-2-22/4----------|

|-----------------|
|-----------------|
|-2/6-----(6)/0---|
|-----------------|

2:48   	  	x3
|--------r--------|
|*-------e-------*|
|*-------s-------*|
|--------t--------|

2:57		 x2
|-----------------|
|-----------------|
|4h6-4h6--4h6-4h6\|
|-----------------|

|-------6-----6-8-|-----6------8--8-|
|-----6-----------|-4-4--4-6-66-66--|
|-6-6----6-66-----|-----------------|
|-----------------|-----------------|

3:09		Chorus		   x8
|-----------------|-----------------|
|-----------------|-----------------|
|-4h66666-44-444--|--------------46-|
|-----------------|-2-2-22--4-446---|

3:47		Outro
|-------6-----6-8-|-------6---6/10-8|-------6-----6-8-|-----6------5--5-|
|-----6-----------|-----6-----------|-----6-----------|-4-4--4-3-33-33--|
|-6-6----6-66-----|-6-6----6-66-----|-6-6----6-66-----|-----------------|
|-----------------|-----------------|-----------------|-----------------|

|-------6-----6-8-|-------6---6-5---|-------6-----6-8-|-6h8-6---6-------|
|-----6-----------|-----6---------6-|-----6-----------|-------8--864----|
|-6-6----6-66-----|-6-6----6-6------|-6-6----6-66-----|-------------646/|
|-----------------|-----------------|-----------------|-----------------|


| q Quarter note
| e 8th note
| s 16th note
|
|
| /  slide up
| \  slide down
| h  hammer-on
| p  pull-off
| ~  vibrato
| +  harmonic
| x  Mute note
=============================================================================
            
Submit corrections

comments powered by Disqus
↑ Back to top | Mute Math Bass for Typical. Lyrics for acoustic guitar and electric guitar. Tablatures and chords are parodies/interpretations of the original songs. You may use it for private study, scholarship, research or language learning purposes only