» » »

Spotlight Bass tabs (ver.1)

Artists:  A B C D E F G H I J K L M N O P Q R S T U V W X Y Z # 

Spotlight Bass tabs (ver.1)

Mute Math
Rating:
0/5 (0 votes)

Tabs too difficult? Try these video lessons and learn fast.
                Mutemath
Spotlight


Drop D tuning

  Intro
G|-----7-7-5-7---------------5-5-7-----7-7-5-7-------------------------------|
D|-0-0---------0-3-3-5-5-7-7-------0-0---------0-3-3-5-5-7-7-3-3-3-----------|
A|---------------------------------------------------------------------------|
D|---------------------------------------------------------------------------|

G|-----7-7-5-7---------------5-5-7-14-14-------12-12-------10-10-------7-7-7-7-|
D|-0-0---------0-3-3-5-5-7-7-------------15-15-------12-12-------10-10---------|
A|-----------------------------------------------------------------------------|
D|-----------------------------------------------------------------------------|


  Verse 1
G|-----7-7-5-7---------------5-5-7-----7-7-5-7---14-14-------12-12-----------|
D|-0-0---------0-3-3-5-5-7-7-------0-0---------0-------15-15-------12-12-10--|
A|---------------------------------------------------------------------------|
D|---------------------------------------------------------------------------|

G|-----7-7-5-7---------------5-5-7-----7-7-5-7-------------------------------|
D|-0-0---------0-3-3-5-5-7-7-------0-0---------0-7-7-----5-5-----------------|x5
A|---------------------------------------------------8-8-----5-5-3-----------|
D|---------------------------------------------------------------------------|


  Prechorus
G|---------------------------------------------------------------------------|
D|-8-8-8-8-8-8-8-8-8-8-8-8-8-8-8-8-7-7-7-7-7-7-7-7-10-10-10-10-10-10-10-10---|
A|---------------------------------------------------------------------------|
D|---------------------------------------------------------------------------|


  Chorus
G|-----7-7-5-7---------------5-5-7-----7-7-5-7-------------------------------|
D|-0-0---------0-3-3-5-5-7-7-------0-0---------0-7-7-----5-5-----------------|x2
A|---------------------------------------------------8-8-----5-5-3-----------|
D|---------------------------------------------------------------------------|


  Verse 2
G|-14-14-14----------12-12-12-------------------------|
D|----------15-15-15----------12-12-12-10-10-12-12----|x4
A|----------------------------------------------------|
D|----------------------------------------------------|

G|---------------------------------------------------------------------|
D|-----------------------------------------------7-7-----5-5-----------|
A|-----5-5-3-5-----------0-0-3-3-5-----5-5-3-5-------8-8-----5-5-3-----|x2
D|-0-0---------0-3-3-5-5-----------0-0---------0-----------------------|


Repeat prechorus and chorus


  Bridge
G|--------------------------------------------------------------|
D|--------------------------------------------------------------|
A|-------------------3~~---------------------3~~---------3~~----|
D|-5~~---3~~---0~~---------5~~---3~~---0~~---------5~~----------|


Repeat chorus

  Outro
G|----------------------10-10-10-10-10-10----10-12-14-14-14-14-14-14-12-12-12-12-12-12---|
D|-12-12-12-12-12-10-12-------------------12---------------------------------------------| x2
A|---------------------------------------------------------------------------------------|
E|---------------------------------------------------------------------------------------|
            
Tabs too difficult? Try these video lessons and learn fast.




comments powered by Disqus
↑ Back to top | Tablatures and chords are parodies/interpretations of the original songs. You may use it for private study, scholarship, research or language learning purposes only