» » »

Mute Math, Spotlight Tabs (ver.2)

Artists:  A B C D E F G H I J K L M N O P Q R S T U V W X Y Z # 

Spotlight Tabs (ver.2)

Mute Math Tabs
 Rating:
4/5 (4 votes)
Spotlight lessons Tabs too difficult? Try these video lessons and learn fast
                it's pretty easy

e|-------------------------------------------------------------|
B|-------------------------------------------------------------|
G|-------------------------------------------------------------|
D|-----0-----12----10-----12-----12-----10-----7-----12--------|
A|-----------------------------------8-------------------------|
E|-------------------------------------------------------------|

e|-------------------------------------------------------------|
B|-------------------------------------------------------------|
G|-------------------------------------------------------------|
D|-12-12-12-12-12-12-12-12-12-12-12-12-12-12-12-12-12-12-12-12-|
A|-------------------------------------------------------------|
E|-------------------------------------------------------------|

e|-------------------------------------------------------------|
B|-------------------------------------------------------------|
G|-------------------------------------------------------------|
D|----0----12-----10-----12-----12-----10-----7-----12---------|
A|----------------------------------8--------------------------|
E|-------------------------------------------------------------|
play this last bar for the rest of the song.
goodluck
            
Submit corrections

comments powered by Disqus
↑ Back to top | Mute Math Tabs for Spotlight. Lyrics for acoustic guitar and electric guitar. Tablatures and chords are parodies/interpretations of the original songs. You may use it for private study, scholarship, research or language learning purposes only