» » »

Reset Tabs (ver.1)

Artists:  A B C D E F G H I J K L M N O P Q R S T U V W X Y Z # 

Reset Tabs (ver.1)

Mute Math
Rating:
3/5 (2 votes)

Hard to play? Try these video lessons and learn fast.
                This is the Guitar part for Reset by Mute Math.
These are the two main parts (in order that they are played).
Some parts add a little extra to the end the last time there played, but there are no new
notes so this should do just fine.


    e-----------------------|
    B-----------------------|
    G-----------------------|
    D-----------------------|
    A-6--1--3---------------|
    E-----------------------|



    e---------------------|
    B---------------------|
    G-1--0--0--0----------|
    D--3--3--3--1---------|
    A------------3--------|
    E---------------------|


Also if your wondering what instrument there using at around 4:00 its called an Axe Synth
made by ElektroKraft
            
Hard to play? Try these video lessons and learn fast. | Correct




comments powered by Disqus
↑ Back to top | Tablatures and chords are parodies/interpretations of the original songs. You may use it for private study, scholarship, research or language learning purposes only