>
 >
Chaos

Chaos Bass Tabs

Mute Math - Chaos chords, tabs, tablatures, lyrics

Guitar lessons | Add/correct | Request | Top 50 tabs Artists:  A B C D E F G H I J K L M N O P Q R S T U V W X Y Z 0-9

Chaos Bass Tabs – Mute Math

CD, Sheet music, Poster

Do you like Chaos? Share with your friends now
Bass TabsTabs
Come in on :21

G|-----------------------------11--------------------------------------------|
D|--------------13-------------------9---11----------------------------------|
A|-------11-----------11--11-------------------------------------------------|
E|----------------------------------------------9----------------------------|
                           X11

Bass at :53
G|---------------------------------------------------------------------------|
D|------------------7/11-----------------------------------------------------|
A|----------------------------------999999999999-----------------------------|
E|----9----7-----------------------------------------------------------------|

Chrous--:58
G|-----------------------------------------------------------------------------|
D|-----------------------------------------------------------------------------|
A|-----------------------------------------------------------------------------|
E|------55555555------22222222--------99999999-----------55555555--------------|

G|---------------------------------------------------------------------------------|
D|---------------------------------------------------------------------------------|
A|---------------44444444/1616161616161616-----------------------------------------|
E|---22222222--------------------------------55555555------22222222----9~~~--------|


G|-----------------------------11--------------------------------------------|
D|--------------13-------------------9---11----------------------------------|
A|-------11-----------11--11-------------------------------------------------|
E|----------------------------------------------9----------------------------|
                             X10

G|---------------------------------------------------------------------------|
D|------------------7/11-----------------------------------------------------|
A|----------------------------------999999999999-----------------------------|
E|----9----7-----------------------------------------------------------------|

CHORUS 2X!!!!
G|-----------------------------------------------------------------------------|
D|-----------------------------------------------------------------------------|
A|-----------------------------------------------------------------------------|
E|------55555555------22222222--------99999999-----------55555555--------------|

G|---------------------------------------------------------------------------|
D|---------------------------------------------------------------------------|
A|---------------44444444/1616161616161616-----------------------------------|
E|---22222222--------------------------------55555555------22222222----9~~~--|
Bridge:2:24
G|-----------------------------------------------------------------------------------|
D|-----------------------------------------------------------------------------------|
A|--2----2-4--4--2----2-------------2--4--4--2--2--4---------------------------------|
E|------------------------4~~/16-----------------------------------------------------|

G|-----------------------------------------------------------------------------|
D|-----------------------------------------------------------------------------|
A|-----------------------------------------------------------------------------|
E|------55555555------22222222--------99999999-----------55555555--------------|

G|---------------------------------------------------------------------------|
D|---------------------------------------------------------------------------|
A|---------------44444444/1616161616161616-----------------------------------|
E|---22222222--------------------------------55555555------22222222----9-----|

G|-----------------------------------------------------------------------------|
D|-----------------------------------------------------------------------------|
A|-----------------------------------------------------------------------------|
E|------55555555------22222222--------99999999-----------55555555--------------|

G|---------------------------------------------------------------------------|
D|---------------------------------------------------------------------------|
A|---------------44444444/1616161616161616-----------------------------------|
E|---22222222--------------------------------55555555------22222222----9~~~--|

G|-----------------------------------------------------------------------------|
D|-----------------------------------------------------------------------------|
A|-----------------------------------------------------------------------------|
E|------55555555------22222222--------99999999-----------55555555--------------|
Outro Part 1 3:17
G|---------------------------------------------------------------------------|
D|---------------------------------------------------------------------------|
A|------------------11-11-11---------11-11-11--------------------------------|
E|---------------------------------------------------------------------------|
Outro Part 2 3:28
G|-------------------------------------------------------------------------------------------|
D|-------------------------------------------------------------------------------------------|
A|---------11-11-11-11-11-11-11-11-11-11-11-11-11-11-11-11-----------------------------------|
E|----------------------------------------------------------9-9-9-9-9-9-9-9-9-9-9-9-9-9-9-9--|         X3
Outro Part 3
G|---------------------------------------------------------------------------|
D|-----------------------------11--------------------------------------------|
A|------------11--------11---------------------------------------------------|
E|------------------9--------------------------------------------------------|                            X2
 Final Part
G|---------------------------------------------------------------------------|
D|---------------------------9----------------11-----------------------------|
A|------------11-11--11-11-------11-9----------------------------------------|
E|--------------------------------------9------------------------------------|





Comments


Popular Mute Math tabs & chords
The Nerve Bass Tabs
Control Chords
Ok Chords
Picture Chords
Stall Out Chords
Typical Intro Chords
Noticed 2 Tabs
Typical Tabs
King Of Glory Ukulele
You Are Mine 2 Ukulele


Song lyrics



↑ Back to top | Tablatures and chords are parodies/interpretations of the original songs. You may use it for private study, scholarship, research or language learning purposes only
© 2014 AZChords.com Contact us | Privacy policy | DMCA | Add/correct tabs | Request tabs | Top 50 tabs