» » »

Mute Math, Burden Bass tabs (ver.1)

Artists:  A B C D E F G H I J K L M N O P Q R S T U V W X Y Z # 

Burden Bass tabs (ver.1)

Mute Math Tabs
 Rating:
4/5 (4 votes)
Burden lessons Tabs too difficult? Try these video lessons and learn fast
1
                -------------------------------------------------------------------------------
-------------------------------------------------------------------------------


Tuning: C# A D G

Key: G# Minor

Trust me on the dropped C#, it gets low in the end!

This is pretty close.


Intro
G |------------------|
D |------------------|
A |6--6----6---6----6|
C#|(2)---------------| X4


0:23 Verse
G |-------------------------------|
D |-------------------------------|
A |6--6----6---6---6----6---6----4| X8
C#|-------------------------------|


0:54 "We Just Lie awake in the"
G |--------------------------------|--------------------------------|
D |--------------------------------|--------------------------------|
A |66666666444444442222222222222222|11111111-----------------------4|   X1
C#|--------------------------------|--------55555555777777777777777-|


1:09 Verse #2
G |-------------------------------|
D |-------------------------------|
A |6--6----6---6---6----6---6----4|  X6
C#|-------------------------------|


1:33
G |-------------------------------|
D |-------------------------------|
A |77777-7-7-7-77-----------------| X1
C#|---------------33---33-3-3-3-3-|


1:40 "We Just Lie awake in the"
G |--------------------------------|--------------------------------|
D |--------------------------------|--------------------------------|
A |66666666444444442222222222222222|11111111-----------------------4|
C#|--------------------------------|--------55555555777777777777777-|

G |--------------------------------|--------------------------------|
D |--------------------------------|--------------------------------|
A |66666666444444442222222222222222|11111111------------------------|
C#|--------------------------------|--------5555555577777777777777\2|(2)|  


2:19
G |-------------------|-------------------|-----------------|-----------------|
D |-------------------|-------------------|-----------------|-----------------|
A |6--6--6-----6---6-6|6--6--6-----6---6-6|7-7--7-7--7--7--7|7-7--7-7--7--7--7|
C#|-------------------|-------------------|-----------------|-----------------|

G |-------------------|-------------------|-----------------|-----------------|
D |-------------------|-------------------|-----------------|-----------------|
A |6--6--6-----6---6-6|6--6--6-----6---6-6|7-7--7-7--7--7--7|-----------------|
C#|-------------------|-------------------|-----------------|3-3--3-3--3--3--3|


2:46 "I just can't hold it together"

G |-------------------------------|
D |-------------------------------|
A |2-22--2-22-2--6-6666-6666666-66|  X2
C#|-------------------------------|
 
G |-------------------------------|
D |-------------------------------|
A |2-22--2-44-4--6-6666-6666666-66|  X2
C#|-------------------------------|


3:17-3:48
G |-------------------------------|
D |-------------------------------|
A |6-4--2------1------------------|  X2
C#|----------------5----7---------|


You can play around Eb (6 on A string) here with the drums


4:35-7:30
G |----------------|
D |6----4----------|
A |----------6----4| Repeat
C#|----------------|


7:30
G |-------------------------------|
D |6------------------------------|
A |-------------------------------|
C#|-------------------------------|


7:46 (This is why you want it in C#)
G |--------------|--------------|
D |--------------|--------------|
A |--------------|--------------|  X2
C#|42-2-2--72-2-2|42-2-2--02-2-2|


8:17-8:22
G |-------------------------------|
D |-------------------------------|
A |-------------------------------|
C#|9------------------------------|


Sweet Drums!!!

| /  slide up
| \  slide down
| h  hammer-on
| p  pull-off
| ~  vibrato
| +  harmonic
| x  Mute note
            
Submit corrections

comments powered by Disqus
↑ Back to top | Mute Math Bass for Burden. Lyrics for acoustic guitar and electric guitar. 1 Tablatures and chords are parodies/interpretations of the original songs. You may use it for private study, scholarship, research or language learning purposes only