» » »

Mustasch, Homophobicalcoholic Tabs (ver.1)

Artists:  A B C D E F G H I J K L M N O P Q R S T U V W X Y Z # 

Homophobicalcoholic Tabs (ver.1)

Mustasch Tabs
 Rating:
4/5 (4 votes)
Homophobicalcoholic lessons Tabs too difficult? Try these video lessons and learn fast
                -------------------------------------------------------------------------------
                Homophobic-Alcoholic - Mustasch
-------------------------------------------------------------------------------


Remember, this is only how I think it sounds good,
probably not correct, and probably not the way Mustasch play.

Tuning: D (DGCFAd)

Intro
  Riff 1a       x3
d |---|-------------------------------------|
a |---|-------------------------------------|
f |-7-|-------------------------------------|
C |-8-|-------------------------------------|
G |---|-------------------------------------|
D |---|-12-13-0h10h12-0h10h12--12-12--12-12-|

  Riff 1b
d |---|------------------------------------|
a |---|------------------------------------|
f |-4-|------------------------------------|
C |-4-|------------------------------------|
G |---|---------------------------13-13-13-|
D |---|-12-13-0h10h12-0-13-0-12-0----------|

Verse
  Riff 2
   Gtr. 1
d |--------------------------------------------------|
a |--------------------------------------------------|
f |--------------------------------------------------|
C |--------------------------------------------------|
G |-----------------------------------10h12-12-12-12-|
D |-10h12-12-12--10h12--10h12--10h12-----------------|
  |                                                  |
  | Gtr. 2                                           |
d |--------------------------------------------------|
a |--------------------------------------------------|
f |--------------------------------------------------|
C |-----------------------------------12h14-14-14-14-|
G |--------------------------------------------------|
D |-10h12-12-12--10h12--10h12--10h12-----------------|

Chorus
d |-------------------------------------------------------------------------|
a |-------------------------------------------------------------------------|
f |-------------------7------7----7--7--------------------8-----8--8--8--8--|
C |-5------5----5--5--7------7----7--7--7------7----7--7--8-----8--8--8--8--|
G |-5------5----5--5--5------5----5--5--7------7----7--7--6-----6--6--6--6--|
D |-3------3----3--3--------------------5------5----5--5--------------------|

d |-------------------------------------------------------------------------|
a |-------------------------------------------------------------------------|
f |-------------------------------------------------------------------------|
C |-------------------------------------------------------------------------|
G |-------------------------------------------------------------------------|
D |-1p0--0-0-1p0--0-0-1p0--0-0-1p0--0-01~p0--0-0-1p0--0-0-1p0--0-0-1p0--0-0-|
         PM-      ---      ---      ---      ---      ---      ---      --|

d |-------------------------------------------------------------------------|
a |-------------------------------------------------------------------------|
f |-------------------7------7----7--7--------------------8-------8----8----|
C |-5------5----5--5--7------7----7--7--7------7----7--7--8-------8----8----|
G |-5------5----5--5--5------5----5--5--7------7----7--7--6-------6----6----|
D |-3------3----3--3--------------------5------5----5--5--------------------|

d |------------------------------------|
a |------------------------------------|
f |-8----------------------------------|
C |-8----------------------------------|
G |-6----------------------------------|
D |------------------------------------|

Bridge
         Riff 3 x7              End Riff 3
d |-----|-----------------------------------|---------------------------|
a |-----|-----------------------------------|---------------------------|
f |-----|-----------------------------------|---------------------------|
C |-----|-----------------------------------|---------------------------|
G |-----|-----------------------------------|---------------------------|
D |-1p0-|-0-0-1p0--0-0-1p0--0-0-1p0--0-01~p0|-0-0-1p0--0-0-1p0--0-0-0-0-|
          PM-      ---      ---      ---      

   Riff 4
d |---------------------------------------------------------------------|
a |---------------------------------------------------------------------|
f |---3-------------------5------------------7--------------------------|
C |---3-------------------5------------------7--------------------------|
G |---1-------------------3------------------5--------------------------|
D |------------0-0-0-0-------------0-0-0-0------------0-0-0-0-----------|

Solo
Riff 1a x3
Riff 1b x1
Riff 1a x3
Riff 1b x1
Riff 4

Ending
d |------------------------------------|
a |------------------------------------|
f |--------------7---------------------|
C |--------------8---------------------|
G |--------------5---------------------|
D |--------------6---------------------|



Piece them together and play!



Notationguide 
-------------
 /  slide up
 \  slide down
 h  hammer-on
 p  pull-off
 ~  vibrato
 +  harmonic
 x  Mute note
 '  Quarter tone bend
 "  Half tone bend
 b  Full bend
 r  Release bend
            
Submit corrections

comments powered by Disqus
↑ Back to top | Mustasch Tabs for Homophobicalcoholic. Lyrics for acoustic guitar and electric guitar. Tablatures and chords are parodies/interpretations of the original songs. You may use it for private study, scholarship, research or language learning purposes only