» » »

Mustasch, Fredrika Tabs (ver.1)

Artists:  A B C D E F G H I J K L M N O P Q R S T U V W X Y Z # 

Fredrika Tabs (ver.1)

Mustasch Tabs
Rating:
5/5 (1 vote)
Hard to play? Try these video lessons and learn fast.
                -------------------------------------------------------------------------------
-------------------------------------------------------------------------------

Tuning: D (DGCFAd)

Play intro twice

d|---------------------------------------------|
A|---------------------------------------------|
F|---------------------------------------------|
C|-7--------10-9-7--7-10-9-7---7--------10-9-7-|
G|-5-5-8-10-8--7-5--5-8--7-5---5-5-8-10-8--7-5-|
D|---3-6-8-----------------------3-6-8---------|

Play this part x times

d|--------|
A|--------|
F|--------|
C|-10-9-7-|
G|-8--7-5-|
D|--------|

At the last one play

d|-------------------------|
A|-------------------------|
F|-------------------------|
C|-10-9-3-3-3-3-3-5-5-5-5-5|
G|-8--7-1-1-1-1-1-3-3-3-3-3|
D|-------------------------|

Then this kicks in twice... 

d|-------------------|
A|-------------------|
F|---------------7---|
C|-7-7-10-10-5-5-5-5-|
G|-5-5-8--8--3-3---3-|
D|-------------------|

This once more

d|---------------------------------------------|
A|---------------------------------------------|
F|---------------------------------------------|
C|-7--------10-9-7--7-10-9-7---7--------10-9-7-|
G|-5-5-8-10-8--7-5--5-8--7-5---5-5-8-10-8--7-5-|
D|---3-6-8-----------------------3-6-8---------|

...and than you play this again fore a while

d|--------|
A|--------|
F|--------|
C|-10-9-7-|
G|-8--7-5-|
D|--------|


At the last one again play

d|-------------------------|
A|-------------------------|
F|-------------------------|
C|-10-9-3-3-3-3-3-5-5-5-5-5|
G|-8--7-1-1-1-1-1-3-3-3-3-3|
D|-------------------------|


As a grande final you just play this to the end

d|-------------------|
A|-------------------|
F|---------------7---|
C|-7-7-10-10-5-5-5-5-|
G|-5-5-8--8--3-3---3-|
D|-------------------|



The solo is above my skill, sorry. Pepole need to get there eyes open up to 
Mustasch. Spread the word, keep on tabbing more mustasch songs!  


| /  slide up
| \  slide down
| h  hammer-on
| p  pull-off
| ~  vibrato
| +  harmonic
| x  Mute note
===============================================================================
            

comments powered by Disqus
↑ Back to top | Mustasch Tabs for Fredrika. Lyrics for acoustic guitar and electric guitar. Tablatures and chords are parodies/interpretations of the original songs. You may use it for private study, scholarship, research or language learning purposes only